Глюки
Агата Кристи
Агата Кристи Глюки
Добавлено: — , Просмотров: 1317 (+122)

  Добавить в избранное

Чудеса (1998)
Глюки

Distortion Guitar

E||------------------|------------------|------------------|------------------|
B||------------------|------------------|------------------|------------------|
G||------------------|------------------|------------------|------------------|
D||------------------|------------------|------------------|------------------|
A||------------------|------------------|------------------|------------------|
E||------------------|------------------|------------------|------------------|

------------------|------------------|------------------|
------------------|------------------|------------------|
------------------|------------------|------------------|
------------------|------------------|------------------|
------------------|------------------|------------------|
------------------|------------------|------------------|

--3--3--3--3--3--3--3--3--|--3--3--3--3--3-3-3-3-3-3-3-3-|
--------------------------|------------------------------|
--------------------------|------------------------------|
--------------------------|------------------------------|
--------------------------|------------------------------|
--------------------------|------------------------------|

--3----3--3----3--3----|--3----3--3----3--3----|--2----2--2----2--2----|
-----------------------|-----------------------|-----------------------|
--0----0--0----0--0----|--0----0--0----0--0----|-----------------------|
-----------------------|-----------------------|--4----4--4----4--4----|
-----------------------|-----------------------|-----------------------|
-----------------------|-----------------------|-----------------------|

--2----2--2----2--2----|--3----3--3----3--3----|--3----3--3----3--3----|
-----------------------|-----------------------|-----------------------|
-----------------------|--0----0--0----0--0----|--0----0--0----0--0----|
--4----4--4----4--4----|-----------------------|-----------------------|
-----------------------|-----------------------|-----------------------|
-----------------------|-----------------------|-----------------------|

--2----2--2----2--2----|--2----2--2----2--2----|--3----3--3----3--3----|
-----------------------|-----------------------|-----------------------|
-----------------------|-----------------------|--0----0--0----0--0----|
--4----4--4----4--4----|--4----4--4----4--4----|-----------------------|
-----------------------|-----------------------|-----------------------|
-----------------------|-----------------------|-----------------------|

--3----3--3----3--3----|--2----2--2----2--2----|--2----2--2----2--2----|
-----------------------|-----------------------|-----------------------|
--0----0--0----0--0----|-----------------------|-----------------------|
-----------------------|--4----4--4----4--4----|--4----4--4----4--4----|
-----------------------|-----------------------|-----------------------|
-----------------------|-----------------------|-----------------------|

--3----3--3----3--3----|--3----3--3----3--3----|--2----2--2--2----2--2--|
-----------------------|-----------------------|------------------------|
--0----0--0----0--0----|--0----0--0----0--0----|------------------------|
-----------------------|-----------------------|--4----4--4--4----4--4--|
-----------------------|-----------------------|------------------------|
-----------------------|-----------------------|------------------------|

----2----2--2----2----|------------------|------------------|------------------|
----------------------|------------------|------------------|------------------|
----------------------|------------------|------------------|------------------|
----4----4--4----4----|------------------|------------------|------------------|
----------------------|------------------|------------------|------------------|
----------------------|------------------|------------------|------------------|

------------------|------------------|------------------|------------------|
------------------|------------------|------------------|------------------|
------------------|------------------|------------------|------------------|
------------------|------------------|------------------|------------------|
------------------|------------------|------------------|------------------|
------------------|------------------|------------------|------------------|

------------------|--3----3--3----3--3----|--3----3--3----3--3----|
------------------|-----------------------|-----------------------|
------------------|--0----0--0----0--0----|--0----0--0----0--0----|
------------------|-----------------------|-----------------------|
------------------|-----------------------|-----------------------|
------------------|-----------------------|-----------------------|

--2----2--2----2--2----|--2----2--2----2--2----|--3----3--3----3--3----|
-----------------------|-----------------------|-----------------------|
-----------------------|-----------------------|--0----0--0----0--0----|
--4----4--4----4--4----|--4----4--4----4--4----|-----------------------|
-----------------------|-----------------------|-----------------------|
-----------------------|-----------------------|-----------------------|

--3----3--3----3--3----|--2----2--2--2----2--2--|----2----2--2----2----|
-----------------------|------------------------|----------------------|
--0----0--0----0--0----|------------------------|----------------------|
-----------------------|--4----4--4--4----4--4--|----4----4--4----4----|
-----------------------|------------------------|----------------------|
-----------------------|------------------------|----------------------|

------------------|------------------|------------------|------------------|
------------------|------------------|------------------|------------------|
------------------|------------------|------------------|------------------|
------------------|------------------|------------------|------------------|
------------------|------------------|------------------|------------------|
------------------|------------------|------------------|------------------|

------------------|------------------|------------------|------------------|
------------------|------------------|------------------|------------------|
------------------|------------------|------------------|------------------|
------------------|------------------|------------------|------------------|
------------------|------------------|------------------|------------------|
------------------|------------------|------------------|------------------|

--3----3--3----3--3----|--3----3--3----3--3----|--2----2--2----2--2----|
-----------------------|-----------------------|-----------------------|
--0----0--0----0--0----|--0----0--0----0--0----|-----------------------|
-----------------------|-----------------------|--4----4--4----4--4----|
-----------------------|-----------------------|-----------------------|
-----------------------|-----------------------|-----------------------|

--2----2--2----2--2----|--3----3--3----3--3----|--3----3--3----3--3----|
-----------------------|-----------------------|-----------------------|
-----------------------|--0----0--0----0--0----|--0----0--0----0--0----|
--4----4--4----4--4----|-----------------------|-----------------------|
-----------------------|-----------------------|-----------------------|
-----------------------|-----------------------|-----------------------|

--2----2--2--2----2--2--|----2----2--2----2----|------------------|
------------------------|----------------------|------------------|
------------------------|----------------------|------------------|
--4----4--4--4----4--4--|----4----4--4----4----|------------------|
------------------------|----------------------|------------------|
------------------------|----------------------|------------------|

------------------|------------------|------------------|------------------|
------------------|------------------|------------------|------------------|
------------------|------------------|------------------|------------------|
------------------|------------------|------------------|------------------|
------------------|------------------|------------------|------------------|
------------------|------------------|------------------|------------------|

------------------|------------------|------------------|------------------|
------------------|------------------|------------------|------------------|
------------------|------------------|------------------|------------------|
------------------|------------------|------------------|------------------|
------------------|------------------|------------------|------------------|
------------------|------------------|------------------|------------------|

------------------|------------------|------------------|------------------|
------------------|------------------|------------------|------------------|
------------------|------------------|------------------|------------------|
------------------|------------------|------------------|------------------|
------------------|------------------|------------------|------------------|
------------------|------------------|------------------|------------------|

------------------|------------------|------------------|------------------|
------------------|------------------|------------------|------------------|
------------------|------------------|------------------|------------------|
------------------|------------------|------------------|------------------|
------------------|------------------|------------------|------------------|
------------------|------------------|------------------|------------------|

------------------|------------------|------------------|------------------|
------------------|------------------|------------------|------------------|
------------------|------------------|------------------|------------------|
------------------|------------------|------------------|------------------|
------------------|------------------|------------------|------------------|
------------------|------------------|------------------|------------------|

------------------|------------------|------------------|------------------|
------------------|------------------|------------------|------------------|
------------------|------------------|------------------|------------------|
------------------|------------------|------------------|------------------|
------------------|------------------|------------------|------------------|
------------------|------------------|------------------|------------------|

------------------|--2----2--2----2--2----|--2----2--2----2--2----|
------------------|-----------------------|-----------------------|
------------------|-----------------------|-----------------------|
------------------|--4----4--4----4--4----|--4----4--4----4--4----|
------------------|-----------------------|-----------------------|
------------------|-----------------------|-----------------------|

--3----3--3----3--3----|--3----3--3----3--3----|--2----2--2----2--2----|
-----------------------|-----------------------|-----------------------|
--0----0--0----0--0----|--0----0--0----0--0----|-----------------------|
-----------------------|-----------------------|--4----4--4----4--4----|
-----------------------|-----------------------|-----------------------|
-----------------------|-----------------------|-----------------------|

--2----2--2----2--2----|--3----3--3----3--3----|--3----3--3----3--3----|
-----------------------|-----------------------|-----------------------|
-----------------------|--0----0--0----0--0----|--0----0--0----0--0----|
--4----4--4----4--4----|-----------------------|-----------------------|
-----------------------|-----------------------|-----------------------|
-----------------------|-----------------------|-----------------------|

--2----2--2--2----2--2--|----2----2--2----2----|------------------|
------------------------|----------------------|------------------|
------------------------|----------------------|------------------|
--4----4--4--4----4--4--|----4----4--4----4----|------------------|
------------------------|----------------------|------------------|
------------------------|----------------------|------------------|

------------------|------------------|------------------|------------------|
------------------|------------------|------------------|------------------|
------------------|------------------|------------------|------------------|
------------------|------------------|------------------|------------------|
------------------|------------------|------------------|------------------|
------------------|------------------|------------------|------------------|

------------------|------------------|------------------|------------------|
------------------|------------------|------------------|------------------|
------------------|------------------|------------------|------------------|
------------------|------------------|------------------|------------------|
------------------|------------------|------------------|------------------|
------------------|------------------|------------------|------------------|

------------------|------------------|------------------|------------------|
------------------|------------------|------------------|------------------|
------------------|------------------|------------------|------------------|
------------------|------------------|------------------|------------------|
------------------|------------------|------------------|------------------|
------------------|------------------|------------------|------------------|

------------------|------------------|------------------|------------------|
------------------|------------------|------------------|------------------|
------------------|------------------|------------------|------------------|
------------------|------------------|------------------|------------------|
------------------|------------------|------------------|------------------|
------------------|------------------|------------------|------------------|

------------------|--2----2--2----2--2----|--2----2--2----2--2----|
------------------|-----------------------|-----------------------|
------------------|-----------------------|-----------------------|
------------------|--4----4--4----4--4----|--4----4--4----4--4----|
------------------|-----------------------|-----------------------|
------------------|-----------------------|-----------------------|

------------------|------------------|------------------|------------------|
------------------|------------------|------------------|------------------|
------------------|------------------|------------------|------------------|
------------------|------------------|------------------|------------------|
------------------|------------------|------------------|------------------|
------------------|------------------|------------------|------------------|

------------------|------------------|------------------|------------------|
------------------|------------------|------------------|------------------|
------------------|------------------|------------------|------------------|
------------------|------------------|------------------|------------------|
------------------|------------------|------------------|------------------|
------------------|------------------|------------------|------------------|

------------------|------------------|------------------|------------------|
------------------|------------------|------------------|------------------|
------------------|------------------|------------------|------------------|
------------------|------------------|------------------|------------------|
------------------|------------------|------------------|------------------|
------------------|------------------|------------------|------------------|

------------------|------------------|------------------|------------------|
------------------|------------------|------------------|------------------|
------------------|------------------|------------------|------------------|
------------------|------------------|------------------|------------------|
------------------|------------------|------------------|------------------|
------------------|------------------|------------------|------------------|

------------------|------------------|------------------|------------------|
------------------|------------------|------------------|------------------|
------------------|------------------|------------------|------------------|
------------------|------------------|------------------|------------------|
------------------|------------------|------------------|------------------|
------------------|------------------|------------------|------------------|

------------------|------------------|------------------|------------------|
------------------|------------------|------------------|------------------|
------------------|------------------|------------------|------------------|
------------------|------------------|------------------|------------------|
------------------|------------------|------------------|------------------|
------------------|------------------|------------------|------------------|

------------------|------------------|------------------|------------------|
------------------|------------------|------------------|------------------|
------------------|------------------|------------------|------------------|
------------------|------------------|------------------|------------------|
------------------|------------------|------------------|------------------|
------------------|------------------|------------------|------------------|

------------------|------------------|------------------|------------------|
------------------|------------------|------------------|------------------|
------------------|------------------|------------------|------------------|
------------------|------------------|------------------|------------------|
------------------|------------------|------------------|------------------|
------------------|------------------|------------------|------------------|

------------------|------------------|------------------|------------------|
------------------|------------------|------------------|------------------|
------------------|------------------|------------------|------------------|
------------------|------------------|------------------|------------------|
------------------|------------------|------------------|------------------|
------------------|------------------|------------------|------------------|

--3----3--3----3--3----|--3----3--3----3--3----|--2----2--2----2--2----|
-----------------------|-----------------------|-----------------------|
--0----0--0----0--0----|--0----0--0----0--0----|-----------------------|
-----------------------|-----------------------|--4----4--4----4--4----|
-----------------------|-----------------------|-----------------------|
-----------------------|-----------------------|-----------------------|

--2----2--2----2--2----|--3----3--3----3--3----|--3----3--3----3--3----|
-----------------------|-----------------------|-----------------------|
-----------------------|--0----0--0----0--0----|--0----0--0----0--0----|
--4----4--4----4--4----|-----------------------|-----------------------|
-----------------------|-----------------------|-----------------------|
-----------------------|-----------------------|-----------------------|

--2----------------|------------------|------------------|------------------|
-------------------|------------------|------------------|------------------|
-------------------|------------------|------------------|------------------|
--4----------------|------------------|------------------|------------------|
-------------------|------------------|------------------|------------------|
-------------------|------------------|------------------|------------------|

------------------||
------------------||
------------------||
------------------||
------------------||
------------------||

Ещё песни с аккордами исполнителя/группы «Агата Кристи»

 
Последние добавленные подборы