Весна
Дельфин
Дельфин Весна
Прислал: 5stars, Добавлено: 24 September 2011 , Просмотров: 5431 (+1143)

 
Добавить в избранное

E|----------------------------------------------1-| 
H|------------------------------------------------| 
G|------------------------------------------------| 
D|------------------------------------------------| 
A|-3-------------------1-------------------------| 
E|--------------------------------------1---------| 

E|------------------------------------------------| 
H|----------------------------------------1------| 
G|------------------------------------------------| 
D|------------------------------------------------| 
A|-3-------------------1-------------------------| 
E|--------------------------------------1---------| 

2-я гитара
H|-8---8--9--11----13--6-----4-6-6------8---8--9--11----13-

H|-6---8-9-9/11-9-8---13-11-13-8---6--6-6-6--6-8----8--6-6-

H|-8-8-9-8-8---8-9-8-6-8-6-4-6---9-9--8-8-9-8---6--|



   Cm                            B                           Fm  
   Мы обязательно встретимcя слышишь меня. Прости. 
   Cm                   B       Fm  
   Там куда я ухожу. Весна. 
   Cm              B                      Fm  
   Я знаю ты сможешь меня найти. 
   Cm        B          Fm  
   Не оставайся одна.

Ещё песни с аккордами исполнителя/группы «Дельфин»

 
Последние добавленные подборы