В наших глазах
Кино
КиноВ наших глазах Прислать видеоурок
Кино В наших глазах
Добавлено: — , Просмотров: 1656 (+214)

 
Добавить в избранное

Группа крови (1988), ПОСЛЕДНИЙ ГЕРОЙ (1988)
В наших глазах

Em 
(1)
        Постой, не уходи!
 G 
Мы ждали лета - пришла зима.
 H7 
Мы заходили в дома,
                 Em C H7 
Но в домах шел снег.
Мы ждали завтрашний день,
Каждый день ждали завтрашний день.
Мы прячем глаза за шторами век.

   Em 
Припев:        В наших глазах крики "Вперед!"
   G            A 
В наших глазах окрики "Стой!"
   Em 
В наших глазах рождение дня
D       C 
И смерть огня.
В наших глазах звездная ночь,
В наших глазах потерянный рай,
В наших глазах закрытая дверь.
Что тебе нужно? Выбирай!

(2)
        Мы хотели пить, не было воды.
Мы хотели света, не было звезды.
Мы выходили под дождь
И пили воду из луж.
Мы хотели песен, не было слов.
Мы хотели спать, не было снов.
Мы носили траур, оркестр играл туш...

Припев:        В наших глазах крики "Вперед!"
В наших глазах окрики "Стой!"
В наших глазах рождение дня
И смерть огня.
В наших глазах звездная ночь,
В наших глазах потерянный рай,
В наших глазах закрытая дверь.
Что тебе нужно? Выбирай!

Tabs:        Introduction

|--0--0----------------------------2--2--------------------------------------|
|--0--0-------------1--0-----------1--1-----------7--5-----------------------|
|--2--0-------------3--2-----------2--2-----------5--3-----------------------|
|-------------------2--1-----------1--1-----------7--5------0----------------|
|-/Solo Guitar/-----3--2--------------------------5--3---------3---3-2-------|
|----------------------------------------------------------------------------|
|
G|/Second Guitar or bass(which is better)/-----------------------------------|
D|------------------------------------------------0---------0----------------|
A|---------------0--3--2-----------0--0-----2--3-----3---------3---3-2-------|
E|--0--0------3----------------------------------------------------------3-2-|

Taken from the book "14 songs by Tsoi"

Ещё песни с аккордами исполнителя/группы «Кино»

 
Последние добавленные подборы