Кукушка
Кино
Кино Кукушка
Добавлено: — , Просмотров: 3067 (+58)

 
Добавить в избранное

Чёрный альбом (1990)
Кукушка

Am 
Песен еще ненаписанных, сколько?
         G    Dm    Am 
Скажи, кукушка, пропой.
 Am 
В городе мне жить или на выселках,
                            G   Dm 
Камнем лежать или гореть звездой?
     Am 
Звездой.

 G      F               Am 
Солнце мое - взгляни на меня,
G      F                   Am 
Моя ладонь превратилась в кулак,
 G          F             Am 
И если есть порох - дай огня.
GF   Am 
Вот так... /Am C F/ 

Кто пойдет по следу одинокому?
Сильные да смелые
Головы сложили в поле в бою.
Мало кто остался в светлой памяти,
В трезвом уме да с твердой рукой в строю,
в строю.

Солнце мое - взгляни на меня,
Моя ладонь превратилась в кулак,
И если есть порох - дай огня.
Вот так...

Где же ты теперь, воля вольная?
С кем же ты сейчас
Ласковый рассвет встречаешь? Ответь.
Хорошо с тобой, да плохо без тебя,
Голову да плечи терпеливые под плеть,
под плеть.

Солнце мое - взгляни на меня,
Моя ладонь превратилась в кулак,
И если есть порох - дай огня.
Вот так...

INTRO SOLO:    1|--------------------------------------------------------------
2|--------------------------------------------------------------
3|----------9--------/9---7--9--12------------------------------
4|--7---10-----10-------------------12---10--9----10--9--7------
5|----------------------------------------------------------10--
6|--------------------------------------------------------------

1|--------------------------------------------------------------
2|--------------------------------------------------------------
3|----------9--------/9---7--9--12------------------------------
4|--7---10-----10-------------------12---10--9----10--9--10--12-
5|--------------------------------------------------------------
6|--------------------------------------------------------------

1|--------------------------------------------------------------
2|--------------------------------------------------------------
3|----------9--------/9---7--9--12------------------------------
4|--7---10-----10-------------------12---10--9----10--9--7------
5|----------------------------------------------------------10--
6|--------------------------------------------------------------

1|--------------------------------------------------------------
2|-------------------------------------------------------10-----
3|----------9--------/9---7--9--12--------------------9---------
4|--7---10-----10-------------------12---10--9----10------------
5|--------------------------------------------------------------
6|--------------------------------------------------------------

Ещё песни с аккордами исполнителя/группы «Кино»

 
Последние добавленные подборы