Я выключаю телевизор...
Кино
КиноЯ выключаю телевизор... Прислать видеоурок
Кино Я выключаю телевизор...
Добавлено: — , Просмотров: 868 (+18)

 
Добавить в избранное

ЧЕРНЫЙ АЛЬБОМ (1989)
... Я ВЫКЛЮЧАЮ ТЕЛЕВИЗОР...

Вступление:    Am D 
|-------------------------------------2--2--2--2--2--2--2-2-5-3-2----|
|--5--8--8--8--8--8--8--8-7-5------3---------------------------------|
|-----------------------------4------------------------------------------|
|------------------------------------------------------------------------|
|------------------------------------------------------------------------|
|------------------------------------------------------------------------|

Hm C 
|-----2--2--2--2--2--2--2-2-5-3-2------------------------------------|
|--3--------------------------------------------------------------------|
|---------------------------------------5--5--5--5--5--5--5-8-7------|
|------------------------------------5--------------------------4-------|
|----------------------------------------------------------------------
|-----------------------------------------------------------------------|

2-ой куплет:    Em Am 
|-------------------------------|-----------------------------|
|-------------------------------|-----------------------------|
|-------------------------------|--2-4-5-4-2-4-5-4-2-4-5-4|
|--2-4-5-4-2-4-5-4-2-4-5-4--|-----------------------------|
|-------------------------------|-----------------------------|
|-------------------------------|-----------------------------|

3-ий куплет:    Em Am 
|----------------------3-2-0----|-----------------------8-7-5-|
|--------------------------------|----------------5------------|
|----------------4---------------|--2------5-------------------|
|--2------5---------------------|-----------------------------|
|--------------------------------|-----------------------------|
|--------------------------------|-----------------------------|

Ещё песни с аккордами исполнителя/группы «Кино»

 
Последние добавленные подборы