Иерусалим
Муцураев Тимур
Муцураев Тимур Иерусалим
Добавлено: — , Просмотров: 3934 (+1143)

 
Добавить в избранное

E|----------------------------- -0----------------------------|
A|--0 --------------------------------------------------------|
D|----------------------------7--6----------------------------|
G|--5---4--5----7--5---4/5/4----------------------------------|
B|------------------------------------------------------------|
e|------------------------------------------------------------|

E|------------------------------------------------------------|
A|-- ---------------------------------------------------------|
D|----------------------------7-------------------------------|
G|-----4--5----7--5-4/5/4-------------------------------------|
B|------------------------------------------------------------|
e|------------------------------------------------------------|

E|----------------------------- -0----------------------------|
A|--0 --------------------------------------------------------|
D|----------------------------7--6----------------------------|
G|--5---4--5----7---5--4/5/4----------------------------------|
B|------------------------------------------------------------|
e|------------------------------------------------------------|

E|------------------------------------------------------------|
A|------------------------------------------------------------|
D|------------------------------------------------------------|
G|---4---5-----7/9----7----5----4--------------------- -------|
B|------------------------------------------------------------|
e|------------------------------------------------------------|

E|------------------------------------------------------------|
A|--0---------------------------------------------------------|
D|------------------------------------------------------------|
G|-----2-----------------------------------2------------------|
B|--1-----1---1-----0--1----3---1---0/1/0---------------------|
e|---------------------0--------------------------------------|

E|------------------------------------------------------------|
A|--2---------------------------------------------------------|
D|-----2------------------------------------------------------|
G|-------1---1------------------------2------------------- ---|
B|--0------0--------0--1--3--1-0/1/0--------------------------|
e|------------------------------------------------------------|

E|------------------------------------------------------------|
A|--0---------------------------------------------------------|
D|------------------------------------------------------------|
G|-----2-----------------------------------2------------------|
B|--1-----1---1-----0--1----3---1---0/1/0---------------------|
e|---------------------0--------------------------------------|

E|------------------------------------------------------------|
A|--2---------------------------------------------------------|
D|-----2------------------------------------------------------|
G|-------1---1------------------------2------------------- ---|
B|--0------0--------0--1--3--1-0/1/0--------------------------|
e|------------------------------------------------------------|

E|------------------------------------------------------------|
A|------------------------------------------------------------|
D|------------------------------------------------------------|
G|------------------------------------------------------------|
B|----0--1---3/5----3---1---0---------------------------------|
e|------------------------------------------------------------|

      Am G      E Am 
E|-----------------------3--------1---0---0----------------------|
A|---0-------------------2--------0---2---0----------------------|
D|----------------2------0--------0---2---2----------------------|
G|------2-------2--------0--------2---1---2----------------------| } 3 раза
B|---1---1----1----------1------------0---1----------------------|
e|-------------------0---1------------1---0----------------------|

    Am G    Am 
E|-----------------------3----0------------------------------|
A|---0-------------------2----0------------------------------|
D|----------------2------0----2------------------------------|
G|------2-------2--------0----2------------------------------|
B|---1---1----1----------1----1------------------------------|
e|------------------0----1----0------------------------------|

Am E 
О Аллах, Мир окутан страшной мглой!
           Am 
И война вновь сменяется войной!
           E 
Cтрашный век, век неверия и зла!
Dm E 
О Аллах, лишь в Джихаде жизнь ясна!

C G 
На земле есть святыня - божий храм,
E  Am 
О Аллах, дай его увидеть нам.
      F Dm 
Ведь сейчас там собрались силы зла,
E 
Об одном молим мы теперь Тебя:

Dm E 
Иерусалим, Иерусалим!
Dm E 
Иерусалим, Иерусалим!

Am     E 
О Аллах, мы живем тем самым днем,
         Am 
Днем когда к одному к Тебе придем!
              F Dm 
Жизни путь пусть закончится для нас
  E 
Лишь тогда, когда будет взят Аль - Акс!

    C Dm 
Этот храм будет взят и зло уйдет,
    G C 
Солнца диск на закате вдруг взойдет.
Am F 
И огонь вдруг низвергнут небеса,
      E 
Божий храм озарит пророк Иса!

C E Am 
Мы тебя освободим,
G C 
Богу души отдадим,
      E  Am 
Взор к Аллаху обратим,
 Dm E 
Будет наш Иерусалим!
 G C 
Горы пепла и огня,
      G C 
В храм войдут Твои войска,
 E Am 
Ты молитвам их внемли,
     Dm E 
Души в вечность забери!

Dm E 
Иерусалим, Иерусалим!
Dm E 
Иерусалим, Иерусалим!

Am E 
О Аллах, дай нам истину понять,
  Am 
В трудный час дай нам силы устоять.
F Dm 
В мире сем - искуситель сатана,
     E 
Лишь Джихад, лишь в джихаде жизнь ясна!

C Dm 
Впереди ждут жестокие бои,
G C E 
Впереди ждут даджаловы полки.
Am Dm 
И в огне будет долго мир пылать,
E 
О Аллах, будут все к Тебе взывать!

Мы тебя освободим,
Богу души отдадим,
Взор к Аллаху обратим,
Будет наш Иерусалим!
Горы пепла и огня,
В храм войдут Твои войска,
Ты молитвам их внемли,
Души в вечность забери!
Иерусалим, Иерусалим!
Иерусалим, Иерусалим!

О Аллах, Ты возвысил этот храм,
Божий дар здесь пророкам многим дан.
Здесь исток обетованной земли,
Но сейчас здесь приют нашли враги!

Недалёк день, когда к тебе придем,
Черный флаг мы над храмом вознесем!
В этот день ты к Всевышнему взывай,
Пусть Аль - Акс станет нам дорогой в рай!

Мы тебя освободим,
Богу души отдадим,
Взор к Аллаху обратим,
Будет наш Иерусалим!
Горы пепла и огня,
В храм войдут Твои войска,
Ты молитвам их внемли,
Души в вечность забери!

На земле есть святыня - божий храм,
О Аллах, дай его увидеть нам!
Ведь сейчас там собрались силы зла,
Об одном молим мы сейчас Тебя!

Этот храм будет взят и зло уйдёт,
Солнца диск на закате вдруг взойдёт!
В этот день ты к Всевышнему взывай,
Пусть Аль - Акс станет нам дорогой в рай!

Мы тебя освободим,
Богу души отдадим,
Взор к Аллаху устремим,
Будет наш Иерусалим!
Горы пепла и огня,
В храм войдут Твои войска,
Ты молитвам их внемли,
Души в вечность забери...

Ещё песни с аккордами исполнителя/группы «Муцураев Тимур»

 
Последние добавленные подборы