Царь Соломон
Муцураев Тимур
Муцураев Тимур Царь Соломон
Добавлено: — , Просмотров: 2321 (+363)

 
Добавить в избранное

Царь Соломон

Intro:              Asus 
e|--------------------------0-----------|
B|--------0p1h0---0---------0-----0-----|
G|------2-------2---2-----2---2---------| } 3 раза
D|----2-----------------2-------2-------|
A|--0-----------------0-----------------|
E|--------------------------------------|

      Asus 
e|----------------------------1---------|
B|--------0p1h0---0-----------0---------|
G|------2-------2---2-----2-------------|
D|----2-----------------2---2-----------|
A|--0-----------------0-----------------|
E|--------------------------------------|

      Am              Asus 
e|--------0-----0---------0-----0-----------------0----------0-----0-------------|
B|--------1-----1---------0-----0---------0p1h0---0----------0-----0-------------|
G|------2---2-----2-----2---2-----2-----2-------2---2------2---2-----2-----------|
D|----2-------2-------2-------2-------2------------------2-------2---------------|
A|--0---------------0---------------0------------------0-------------------------|
E|-------------------------------------------------------------------------------|
Спеша, неумолимо время мчится, сурова и безжалостна судьба.

      G                                 Am              Asus 
e|--------3-----3---------1p3h1---0---------0-----0----------0-----0-------------|
B|--------0-----0-----------------0---------1-----1----------0-----0-------------|
G|------0---0-----0-----0-------0---0-----2---2-----2------2---2-----2-----------|
D|--------------------------------------2-------2--------2-------2---------------|
A|----2-------2-------2---------------0----------------0-------------------------|
E|--3---------------3------------------------------------------------------------|
До наших дней дошла святая притча, прошедшая сквозь долгие века.

      Am              Asus              Am              Asus 
e|--------0-----0---------0-----0-----------0-----0----------0-----0-------------|
B|--------1-----1---------0-----0-----------1-----1----------0-----0-------------|
G|------2---2-----2-----2---2-----2-------2---2-----2------2---2-----2-----------|
D|----2-------2-------2-------2---------2-------2--------2-------2---------------|
A|--0---------------0-----------------0----------------0-------------------------|
E|-------------------------------------------------------------------------------|
Давным-давно, гласит нам то приданье, когда ещё сон джинов не исчез,

      G                                 Am                   Asus 
e|--------3-----3---------1p3h1---0---------0-----0----------0-----0-------------|
B|--------0-----0-----------------0---------1-----1----------0-----0-------------|
G|------0---0-----0-----0-------0---0-----2---2-----2------2---2-----2-----------|
D|--------------------------------------2-------2--------2-------2---------------|
A|----2-------2-------2---------------0----------------0-------------------------|
E|--3---------------3------------------------------------------------------------|
Царь Соломон огромным царством правил, пророком был он, посланным с небес.

И наделённый свыше грозной властью, людские споры мог он разрешать.
Правдивое и мудрое решенье скрепляла соломонова печать.
И вот, по-справедливости однажды, когда на троне суд дневной вершил,
В людском обличии к пророку явился ангел смерти Азраил.

      Asus 
e|--------------------------0-----------|
B|--------0p1h0---0---------0-----0-----|
G|------2-------2---2-----2---2---------| } 2 раза
D|----2-----------------2-------2-------|
A|--0-----------------0-----------------|
E|--------------------------------------|

Явился он весь в белом одеянии, и ангельский был бесподобен лик.
Пришёл он от Всевышнего с посланьем, и во дворце люд намертво затих.
С почтением приветствовав пророка, благословив, речь начал Азраил,
И излагая весть, вдруг ненароком он на купце свой взгляд остановил.

И с изумлением посмотрев сурово, он пристально в глаза взглянул купцу
И не промолвил он ему ни слова. И дрожь прошлась по бледному лицу.
И покачнув головою с удивлением, принесшую с собой окончив речь,
С пророком распростившись, удалился. И к Соломону бросился купец:

«О, мудрый Соломон, тебя молю я, исполнен я предчувствием конца.
Проклятие на мне, ведь ангел смерти не зря же посмотрел в мои глаза.
Богат я очень и к тому же молод, не хочется так рано умереть.
Прошу, перенеси меня отсюда туда, где не настигнет меня смерть».

«Твоё желание я смогу исполнить, - сказал ему, не торопясь, пророк:
К Всевышнему взывая, попрошу я, чтоб ветром ты унёсся на восток,
Сквозь облака седые, через горы пускай же унесут тебя ветра;
Коль скрыться хочешь ты от смертной доли, страна, куда прибудешь далека».

      Asus 
e|--------------------------0-----------|
B|--------0p1h0---0---------0-----0-----|
G|------2-------2---2-----2---2---------| } 2 раза
D|----2-----------------2-------2-------|
A|--0-----------------0-----------------|
E|--------------------------------------|

И произнёс молитву Соломон, и вдруг свирепый смерч вокруг поднялся
И по дворцу пронёсся вихрем он, и растворившись в тьме, купец умчался.
Прошло два дня, и с праведным веленьем к пророку вновь явился Азраил.
И выслушав посланье, с нетерпеньем премудрый Соломон его спросил:

«Твоё деяние для меня священно. Расспрашивать хоть мне и не к лицу,
Скажи мне, ангел, почему сурово в глаза ты посмотрел тому купцу?»
-«Я ангел смерти, я судьбы конец. По воле Бога, по исходу дней,
Как только же смолкает стук сердец, я души забираю у людей.

Когда же направлялся я с посланием от Господа Всевышнего к тебе,
Я получил святое предписание, что жизнью станет меньше на земле.
Ещё для одного настал черёд, я получил от Господа приказ:
Где смерть наступит… (имя человека), чтоб умертвил его я через час.

И удивлению не было предела, когда того, кого скончался срок,
Не на востоке, а у ложи трона на западе увидел я, пророк.
…И повинуясь божьему веленью, я через час исполнил свой приказ.
Его я встретил там, в стране далёкой, на век светильник мне его угас».

      Asus 
e|--------------------------0-----------|
B|--------0p1h0---0---------0-----0-----|
G|------2-------2---2-----2---2---------| } 2 раза
D|----2-----------------2-------2-------|
A|--0-----------------0-----------------|
E|--------------------------------------|

Спеша, неумолимо время мчится, сурова и безжалостна судьба.
До наших дней дошла святая притча, прошедшая сквозь долгие года.
И истина у притчи такова: коль срок исписан, то спасенья нету,
Не деться нам от смерти никуда, кто от неё бежит, бежит навстречу.

И истина у притчи такова: коль срок исписан, то спасенья нету,
Не деться нам от смерти никуда, кто от неё бежит, бежит навстречу.

Outro:              Asus 
e|--------------------------0-----------|
B|--------0p1h0---0---------0-----0-----|
G|------2-------2---2-----2---2---------| } 2 раза
D|----2-----------------2-------2-------|
A|--0-----------------0-----------------|
E|--------------------------------------|

      Am   Asus       Am 
e|----0-----0-----0---(0----------------|
B|----1-----0-----0---)1----------------|
G|--2---2-----2-------(2----------------|
D|--------2-----2-----)2----------------|
A|--------------------(0----------------|
E|--------------------------------------|

Ещё песни с аккордами исполнителя/группы «Муцураев Тимур»

 
Последние добавленные подборы