Тебя Любить
Не Будите Спящих
Не Будите Спящих Тебя Любить
Прислал: -, Добавлено: 14 January 2014 , Просмотров: 10558 (+1268)

 
Добавить в избранное

Вступление(Intro)

1|-----------------------------|
2|-------0------------3--------|
3|-----4---4--------4---4------|
4|---4-------4----4--------4---|
5|-2------------2--------------|
6|-----------------------------|

1|-----------------------------|
2|-------0------------3--------|
3|-----4---4--------4---4------|
4|---4-------4----4--------4---|
5|-----------------------------|
6|-3------------3--------------|

1|-----------------------------|
2|-------3---------------------|
3|-----0---0-------------------|
4|---4-------4-----------------|
5|-----------------------------|
6|-0---------------------------|

1|-----------------------------|
2|-------0---------------------|
3|-----2---2-------------------|
4|---2-------2-----------------|
5|-0---------------------------|
6|-----------------------------|

1|-----------------------------|
2|-------3---------------------|
3|-----4---4-------------------|
4|---4-------4-----------------|
5|-2---------------------------|
6|-----------------------------|

Hm Gm 
Поезд маршрутом «любовь» застоялся в депо,
Em A 
Поезд маршрутом «понять» сбился с пути,
Снова разлука на миг постучалась в окно,
Снова срывается с губ: "слышишь, прости"

Hm 
Тебя любить несвободным быть, знаешь,
Gm 
Тебя искал среди сотен глаз, помнишь?
Em 
Тебя нашел, когда было мне больно,
A
Объясни мне, зачем сейчас плачешь?

Ещё песни с аккордами исполнителя/группы «Не Будите Спящих»

 
Последние добавленные подборы