Гимн Фабрики Звёзд
Разное
РазноеГимн Фабрики Звёзд Прислать видеоурок
Разное Гимн Фабрики Звёзд
Добавлено: — , Просмотров: 725 (+38)

  Добавить в избранное

Гимн Фабрики Звёзд

Вступление:    e |----------------9-7---0-7-5---0-7-5--3-2-0------------
b |--5p7p5-------7-----------------------------3-2-------
g |--------7-6-7-----------------------------------3-4---
d |------------------------------------------------------

Куплет:        e |-------------------5-3-2-0------------------------------------------
b |--5-7-8-7-5-3-2-0---------3-2-0---2-3-5-3-2-0-----------------------
g |------------------------------------------------3-1--1-3-4-3-4-6-7--
d |--------------------------------------------------------------------
a |--------------------------------------------------------------------
E |--------------------------------------------------------------------

e |------------------5-3-2-0-------------------------------------------
b |--5-7-8-7-5-3-2-0---------3-2-0---2-3-5-3-2-0-----------------------
g |------------------------------------------------3-1--1-3-4-3-1-0-1--
d |--------------------------------------------------------------------
a |--------------------------------------------------------------------
E |--------------------------------------------------------------------

Ещё песни с аккордами исполнителя/группы «Разное»

 
Последние добавленные подборы