Кан-Кан
Разное
Разное Кан-Кан
Добавлено: — , Просмотров: 918 (+89)

  Добавить в избранное

Кан-Кан

Классический Кан-Кан

E---|------17--20--17--|--17--15--15----|
B||------15--15--17--|--15----------17--|--18-------------------|
G||--17--------------|------17--17------------------|
D---------------|
A---------------|
E---------------|

--17----------17--|--15----------------------------|
---------------------17--|--17--15--17--15--|--17--15--17--15--|
------16--16------|------17--17--------------------|
---------------------------------------|
---------------------------------------|
---------------------------------------|

-------------------------|------17--20--17--|--17--15--15----|
------15--15--17--|--15----------17--|--18-------------------|
------------------|------17--17------------------|
--17---------------------------------|
-------------------------------------|
-------------------------------------|

--17----------17--|--15--------------------------|
---------------------17--|--17--15--17--15--|--15------------|
------16--16------|------17--17-------------|------17--17----|
-------------------------------------|
-------------------------------------|
-------------------------------------|

-----------------------------|
--17-------------------------|
--------17-------------------|
--------------|--19----17----|--17------14--15--|--14------------|
-----------------|------17----------|------17--15----|
-----------------------------|

-----------------------------|
--17--------------------|--15------------|
--------17-------|----------14--16--|------17--17----|
--------------|--19----15----|--14--15---------------|
-----------------------------|
-----------------------------|

-----------------------------|
--17-------------------------|
--------17-------------------|
--------------|--19----17----|--17------14--15--|--14------------|
-----------------|------17----------|------17--15----|
-----------------------------|

-------------------------------|
--17---------------------------|
--------17-------|----------14--16--|--17------16------|
--------------|--19----17----|--16--17----------|------17------17--|
-------------------------------|
-------------------------------|

-------------------------------------|
-------------------------------------|
-17-----16-----|-17------16------|--17------16------|--17---17--17---17|
----17------17-|-----17------17--|------17------17-----------|
-------------------------------------|
-------------------------------------|

------------------------------------|
------------------------------------|
--17---17--17---17-|--17---17--17---17--|--17--17--17--17--|--10--------|
------------------------------------|
------------------------------------|
------------------------------------|

---------------------|------10-------------|
------11--10------|--13----13----|--13------10--11-----|
--12----------12------------|--12----12----|
-------------------------------|
-------------------------------|
-------------------------------|

------------------|------13--12--10----------|
------11--10-------------|--13--11--10-------|
--12----------12--|--10-----------------12--|--10--------|
---------------------------------|
---------------------------------|
---------------------------------|

---------------------|------10-------------|
------11--10------|--13----13----|--13------10--11-----|
--12----------12------------|--12----12----|
-------------------------------|
-------------------------------|
-------------------------------|

----------------------------||
------11--10------|------13------10-----||
--12----------12--|--10------13------|--10----------||
-------------------------|--------10----||
----------------------------||
----------------------------||

Ещё песни с аккордами исполнителя/группы «Разное»

 
Последние добавленные подборы