Легенда
Разное
Разное Легенда
Добавлено: — , Просмотров: 858 (+108)

  Добавить в избранное

Легенда

1----------------------------------
2----0---0----0---0---0----0-------
3----------------------------------
4------9---10---7---9--------------
5--7--------------------10---------
6----------------------------------

1----------------------------------
2----0---0----0---0---0----0-------
3----------------------------------
4------9---10---7---9--------------
5--7--------------------10---------
6----------------------------------


1----------------------------------
2----0---0----0---0---0----0-------
3----------------------------------
4------9---10---7---9--------------
5--7--------------------10---------
6----------------------------------

1----------------------------------
2----0---0----0----0---0----0------
3----------------------------------
4--7-------------7-----------------
5------9---10--------9---10--------
6----------------------------------

Ещё песни с аккордами исполнителя/группы «Разное»

 
Последние добавленные подборы