Собачий вальс
Разное
РазноеСобачий вальс Прислать видеоурок
Разное Собачий вальс
Добавлено: — , Просмотров: 1102 (+26)

  Добавить в избранное

Собачий вальс

1|-------------|-------------|-----------------------|
2|---------0---|--------0----|--------0-3-0-2-2-2----|
3|--7-5-0--0---|-7-5-0--0----|--7-5-0-0-3-0-2-2-2-0--|
4|-------------|-------------|-----------------------|
5|-------------|-------------|-----------------------|
6|-------------|-------------|-----------------------|
Чем быстрее играешь, тем лучше
1|-------------|-------------|-----------------------|
2|---------0---|---------0---|---------0-3-0-2-2-2---|
3|--7-5-0--0---|--7-5-0--0---|---7-5-0-0-3-0-2-2-2---|
4|-------------|-------------|-----------------------|
5|-------------|-------------|-----------------------|
6|-------------|-------------|-----------------------|

1|-------------|---8-6-4----------------------------|
2|--8-6-4--2---|----------2----И всё заново---------|
3|---------2---|----------2-0-----------------------|
4|-------------|------------------------------------|
5|-------------|------------------------------------|
6|-------------|------------------------------------|

Ещё песни с аккордами исполнителя/группы «Разное»

 
Последние добавленные подборы