Титаник
Разное
Разное Титаник 2014-01-15T00:00:00+04:00
Добавлено: — , Просмотров: 15566 (+721)

  Добавить в избранное

E|--------2--4--|-6-----4--2--|-4--9----9--7--6--|----------------|------------4--|
B|--------------|-------------|------------------|-7--------------|--------7------|
G|--------------|-------------|------------------|------8---------|-6-------------|
D|--------------|-------------|------------------|------------9---|---------------|
A|--------------|-------------|------------------|----------------|---------------|
E|--------------|-------------|------------------|----------------|---------------|


E|-6-----7-6-4-2-|-4--9----9--6--9--|-11----9----|-------|-----------------|
B|---------------|------------------|------------|-9-----|-7----7--7---7---|
G|---------------|------------------|------------|-------|-----------------|
D|---------------|------------------|------------|-------|-----------------|
A|---------------|------------------|------------|-------|-----------------|
E|---------------|------------------|------------|-------|-----------------|


E|--------------|-----------4---|-6----4----|-2----2--2---2---|-1---2----2---|
B|-6---7----7---|-6---7---------|-----------|-----------------|--------------|
G|--------------|---------------|-----------|-----------------|--------------|
D|--------------|---------------|-----------|-----------------|--------------|
A|--------------|---------------|-----------|-----------------|--------------|
E|--------------|---------------|-----------|-----------------|--------------|


E|-------|--------|-2-----|-4----------|-9----7---7----6----|-4----6---7---|
B|-2-----|--------|-------|--------2---|--------------------|--------------|
G|-------|--------|-------|------------|--------------------|--------------|
D|-------|--------|-------|------------|--------------------|--------------|
A|-------|--------|-------|------------|--------------------|--------------|
E|-------|--------|-------|------------|--------------------|--------------|


E|-6----4---4----2----|-1---2----1---|--------|--------|-2-----|-4----------|
B|--------------------|--------------|-4------|-2------|-------|--------2---|
G|--------------------|--------------|--------|--------|-------|------------|
D|--------------------|--------------|--------|--------|-------|------------|
A|--------------------|--------------|--------|--------|-------|------------|
E|--------------------|--------------|--------|--------|-------|------------|


E|-9----7------6----4--|-4----6---7---|-6----4---2---|-1---2----1---|
B|---------------------|--------------|--------------|--------------|
G|---------------------|--------------|--------------|--------------|
D|---------------------|--------------|--------------|--------------|
A|---------------------|--------------|--------------|--------------|
E|---------------------|--------------|--------------|--------------|


E|-1---2----4---|-6----6----4----4----|-2-----2-------|
B|--------------|---------------------|---------------|
G|--------------|---------------------|---------------|
D|--------------|---------------------|---------------|
A|--------------|---------------------|---------------|
E|--------------|---------------------|---------------|

Ещё песни с аккордами исполнителя/группы «Разное»

 
Последние добавленные подборы