Шутка
Разное
Разное Шутка
Добавлено: — , Просмотров: 851 (+115)

  Добавить в избранное

Шутка

1----------------------------------------------------------
2-------8-10-------------3-5------------5-6----------0-2---
3----10------10-------5---------------7-----7-----2------2-
4----------------------------------------------------------
5--8---------------3---------3-4---5-----------0-----------
6----------------------------------------------------------

1---------------------------------------0-1-3--------------
2------------1----------1-------------3--------------------
3-------1--2--------------3-2-0-----2----------------------
4----3---------------2------------0------------------------
5-----------------3----------------------------------------
6-1--------------------------------------------------------

Ещё песни с аккордами исполнителя/группы «Разное»

 
Последние добавленные подборы