Грязная кровь
Сектор Газа
Сектор Газа Грязная кровь
Добавлено: — , Просмотров: 1006 (+48)

  Добавить в избранное

2000 - Восставший из Ада
Грязная кровь

(1)
        Однажды после пьянки возвращался домой,
Я был в умат и песни весело пел.
Мой путь пролегал через старый погост,
Был бы я трезвый - сразу б я охуел.
Но я не был трезв, и было мне до пизды,
Мне смелость придавал выпитый кир,
И тут передо мною затрещали кусты,
Из них восстал кровавый старый вампир.

Припев:        Кровь, кровь, моя грязная кровь!..
Напившись крови моей, дохнет комар.
Грязная кровь… Откуда чистой ей быть -
Ведь сорок лет я каждый вечер в угар.

Кровь, кровь, моя грязная кровь!..
Напившись крови моей, дохнет комар.
Грязная кровь… Откуда чистой ей быть -
Ведь сорок лет я каждый вечер в угар.

Кровь, кровь, моя грязная кровь!..
Напившись крови моей, дохнет комар.
Грязная кровь… Откуда чистой ей быть -
Ведь сорок лет я каждый вечер в угар.

х  - пиццикато. Глушение краем ладони правой руки.

Вступление:    3|-----------------------------------7-7-7-7-7-7-7-7--------
4|-2-2-2-2-2-2-2-2--5-5-5-5-5-5-5-5--7-7-7-7-7-7-7-7-2-2-2--
5|-2-2-2-2-2-2-2-2--5-5-5-5-5-5-5-5--5-5-5-5-5-5-5-5-2-2-2--
6|-0-0-0-0-0-0-0-0--3-3-3-3-3-3-3-3------------------0-0-0--

-----------------------------------7-7-7-7-7-7-7-7----------
-2-2-2-2-2-2-2-2--5-5-5-5-5-5-5-5--7-7-7-7-7-7-7-7-2-2-2-2--
-2-2-2-2-2-2-2-2--5-5-5-5-5-5-5-5--5-5-5-5-5-5-5-5-2-2-2-2--
-0-0-0-0-0-0-0-0--3-3-3-3-3-3-3-3------------------0-0-0-0--

---------------
-2-2-2-2-2-7-5-
-2-2-2-2-2-7-5-
-0-0-0-0-0-5-3-

Куплет:        4|-2-2-2-2-2-2-3--2-2-2-2-2-2-3--2-2-2-2-2-2-3-2-2-2-2-7-5--
5|-2-2-2-2-2-2-3--2-2-2-2-2-2-3--2-2-2-2-2-2-3—2—2-2-2-7-5--
6|-0-0-0-0-0-0-1--0-0-0-0-0-0-1--0-0-0-0-0-0-1-0-0-0-0-5-3--
   x x   x x      x x   x x      x x   x x     x   x

Припев:        3|-----------------------------------7-7-7-7-7-7-7-7--------
4|-2-2-2-2-2-2-2-2--5-5-5-5-5-5-5-5--7-7-7-7-7-7-7-7-2-2-2--
5|-2-2-2-2-2-2-2-2--5-5-5-5-5-5-5-5--5-5-5-5-5-5-5-5—2-2-2--
6|-0-0-0-0-0-0-0-0--3-3-3-3-3-3-3-3------------------0-0-0--

-2-7-5---
-2-7-5---
-0-5-3---

Ещё песни с аккордами исполнителя/группы «Сектор Газа»

 
Последние добавленные подборы