Марс Атакует
1.5 кг Отличного Пюре
1.5 кг Отличного ПюреМарс Атакует Прислать видеоурок
1.5 кг Отличного Пюре Марс Атакует
Добавлено: — , Просмотров: 639 (+0)

 
Добавить в избранное

Марс Атакует

Intro:        2|--------------------------------------------------------|
3|--5ххх5555 5ххх5555---7ххх7777-7ххх7777-------7ххх7ххх--|
4|--5ххх5555-5ххх5555---7ххх7777-7ххх7777-4Х----7ххх7ххх--|
5|--3ххх3333-3ххх3333---5ххх5555-5ххх5555-------5ххх5ххх--|
6|--------------------------------------------------------|

2|---------------------------------------------------|
3|--------------6-6-6-6-6--7-7-7-7-7--1111111111-----|
4|---7-7-7-7-7--x-x-x-x-x--x-x-x-x-x---x-x-x-x-x-----|
5|---x-x-x-x-x--4-4-4-4-4--5-5-5-5-5---9-9-9-9-9-----|
6|---5-5-5-5-5---------------------------------------|
1X
2|---------------------------------------------------|
3|--------------6-6-6-6-6--7-7-7-7-7--11........-----|
4|---7-7-7-7-7--x-x-x-x-x--x-x-x-x-x---x........-----|
5|---x-x-x-x-x--4-4-4-4-4--5-5-5-5-5---9........-----|
6|---5-5-5-5-5---------------------------------------|

A5               C#5 
Стоп! Непонятно отчего,
                   F#5 
стало вдруг кругом светло.
                 D5 
Красный луч пробил башку.  Марс атакуй!
A5             C#5 
Выжги лазером меня.
                  F#5 
Все мозги стекут туда,
                  D5 
где ищет выхода на свет  Вкусная еда!
A5               C#5 
Армагеддон прямо сейчас.
                    F#5 
Все фишки ада без прикрас.
                       D5            A5      C#5 
С неба смотрит красный глаз  планеты Марс........
F#5                      D5 
На тебя, на меня, на всех нас!

Проигрыш:    E|----5-------4-------4-3-2-------5-------
B|----5-------5-------5-4-3-------7-------
G|----6-------6-------6-5-4-------7-------
D|----7-------6-------6-5-4-------7-------
A|----7-------4-------4-3-2-------5-------
E|----5-------x-------x-x-x-------x-------

A5               C#5 
Стоп! Непонятно отчего,
                   F#5 
стало вдруг кругом светло.
                 D5 
Красный луч пробил башку. Марс атакуй!
A5             C#5 
Выжги лазером меня.
                  F#5 
Все мозги стекут туда,
                  D5 
где ищет выхода на свет  Вкусная еда!
A5               C#5 
Армагеддон прямо сейчас.
                    F#5 
Все фишки ада без прикрас.
                       D5           A5      C#5 
С неба смотрит красный глаз планеты Марс........
F#5                      D5 
На тебя, на меня, на всех нас!

2|---------------------------------------------------|
3|--------------6-6-6-6-6--7-7-7-7-7--1111111111-----|
4|---7-7-7-7-7--x-x-x-x-x--x-x-x-x-x---x-x-x-x-x-----|
5|---x-x-x-x-x--4-4-4-4-4--5-5-5-5-5---9-9-9-9-9-----|
6|---5-5-5-5-5---------------------------------------|
1X
2|---------------------------------------------------|
3|--------------6-6-6-6-6--7-7-7-7-7--11........-----|
4|---7-7-7-7-7--x-x-x-x-x--x-x-x-x-x---x........--7--|
5|---x-x-x-x-x--4-4-4-4-4--5-5-5-5-5---9........--7--|
6|---5-5-5-5-5------------------------------------5--|

Ещё песни с аккордами исполнителя/группы «1.5 кг Отличного Пюре»