Crash
12 Stones
12 StonesCrash Прислать видеоурок Скачать GTP к этой песне
12 Stones Crash
Добавлено: — , Просмотров: 436 (+1)

  Добавить в избранное

Crash

-----------------------------------------------------------------
-----------------------------------------------------------------
-7-----7-----7---10-----10-----10---9-----9-----9----5---4---4---
---0-0---0-0---0----0-0----0-0----0---0-0---0-0---0----5---5---5-
-----------------------------------------------------------------
-----------------------------------------------------------------

---------------------------------------
-----3-3-------------------------------
-----2-2-5-5-5-5-----------------------
-0-0-0-0-5-5-5-5-3-3-3-3-5-5-5---------
-0-0-0-0-3-3-3-3-3-3-3-3-5-5-5---------
-0-0-0-0---------3-3-3-3-5-5-5-3~------

-------------------------------------
-3-3-3-3-----------------------------
-2-2-2-2-5-5-5-5---------------------
-0-0-0-0-5-5-5-5-5-5-5-3-3-----------
-0-0-0-0-3-3-3-3-5-5-5-3-3-----------
-0-0-0-0---------5-5-5-3-3-----------
pm.......

---------------------------------------
---------6h8p6-5h6p5-6p5---------------
-5h7-5h7-----------------5-----5---5-7-
---------------------------5h7---7-----
---------------------------------------
---------------------------------------

-------------------------------------
-------------------------------------
---------5-5-5-----------------------
-0-0-0-0-x-x-x-----------------------
-0-0-0-0-3-3-3-----------------------
-0-0-0-0-----------------------------

Ещё песни с аккордами исполнителя/группы «12 Stones»