Eric`s Song
12 Stones
12 StonesEric`s Song Прислать видеоурок
12 Stones Eric`s Song
Добавлено: — , Просмотров: 343 (+0)

  Добавить в избранное

Eric`s Song

-----------8-7-----------8-7-----------8-7---------------|
---6---6---------6---6---------6---6---------6---8p6---6-|
-7---7---7-----7---7---7-----7---7---7-----7---7-----7---|
---------------------------------------------------------|
---------------------------------------------------------|
---------------------------------------------------------|

---------------------------------------------------------|
---------------------------------------------------------|
-----------3-3-3-3/5-5---------------5-5-5---------------|
-5-5-5-5-5-3-3-3-3/5-5-5-5-5-5-5-3-3-5-5-5---------------|
-5-5-5-5-5-1-1-1-1/3-3-5-5-5-5-5-3-3-3-3-3---------------|
-3-3-3-3-3-------------3-3-3-3-3-1-1---------------------|

---------------------8-----7-----------------------------|
---6---6-----6---6-----6-----6---------------------------|
-7---7-----7---7---7-----7-----7-------------------------|
---------------------------------------------------------|
---------------------------------------------------------|
---------------------------------------------------------|

Ещё песни с аккордами исполнителя/группы «12 Stones»