Fade Away
12 Stones
12 StonesFade Away Прислать видеоурок
12 Stones Fade Away
Добавлено: — , Просмотров: 523 (+0)

  Добавить в избранное

Fade Away

------------------------------------------------------
------------------------------------------------------
------------------------------------------------------
-----7-----7---7-------10-----10---10-----7-----7---7-
---5---5-------------8----8-------------5---5---------
-0-------0---0-----8--------8----8----5-------5---5---

------------------
------------------
------------------
-----7------------
---5---5---5------
-5-------5---5-7--

--------------------------
--------------------------
-----3-3------------------
-0-0-3-3-5-5-x-5-7-7-7----
-0-0-1-1-5-5-x-5-7-7-7----
-0-0-----5-5-x-5-7-7-7----

--------------------------------
--------------------------------
--------------------------------
-0-3-0-0-5-3-0-3-0-3-0-5-3-0-3--
-0-3-0-0-5-3-0-3-0-3-0-5-3-0-3--
-0-3-0-0-5-3-0-3-0-3-0-5-3-0-3--

----------------------------------
----------------------------------
----------------------------------
-5~-7~-0-3-2-0-5-3-0-5-3-0-0------
-5~-7~-0-3-2-0-5-3-0-5-3-0-0------
-5~-7~-0-3-2-0-5-3-0-5-3-0-0------
pm...........

Нacлaждaйтecь

Ещё песни с аккордами исполнителя/группы «12 Stones»