Home
12 Stones
12 StonesHome Прислать видеоурок
12 Stones Home
Добавлено: — , Просмотров: 405 (+1)

  Добавить в избранное

Home

A|--3--|
e|---------------------------------------------------|
B|---------------------------------------------------|
G|--------------3-----------------8-8-8/10101010-----|
D|-----1---0------1-0-1--(X7)-----8-8-8/10101010-----|
A|--3-----------------------------6-6-6/-8-8-8-8-----|
e|---------------------------------------------------|

e|---------------------------------------------------|
B|---------------------------------------------------|
G|--------------3-----------------8-8-8/10101010-----|
D|-----1---0------1-0-1--(X3)-----8-8-8/10101010-----|
A|--3-----------------------------6-6-6/-8-8-8-8-----|
e|---------------------------------------------------|

e|---------------------------------------------------|
B|---------------------------------------------------|
G|--8-8-8-888888/10-10-10-1010101010-----------------|
D|--8-8-8-888888/10-10-10-1010101010---(X2)----------|
A|--6-6-6-666666/-8--8--8--8-8-8-8-8-----------------|
e|---------------------------------------------------|

e|---------------------------------|
B|---------------------------------|
G|--3-xx-3/5-x-3/5--3--------------|
D|--3-xx-3/5-x-3/5--3--5----(X4)---|
A|--1-xx-1/3-x-1/5--1--5-----------|
e|---------------------3-----------|

Coлo:        e|------111----------------111--------333---------|
B|--1111---444-333----1111----444-333-------------|
G|----------------333-----------------------------|
D|-----------------------------------------(X2)---|
A|------------------------------------------------|
e|------------------------------------------------|

e|--8888-131313-11:11:11-101010-666-8888----|
B|------------------------------------------|
G|------------------------------------------|
D|------------------------------------------|
A|------------------------------------------|
e|------------------------------------------|

e|--8888-131313-11:11:11-101010-666-151515--|
B|------------------------------------------|
G|------------------------------------------|
D|-------------------------------------(X2)-|
A|------------------------------------------|
e|------------------------------------------|

Кoнцoвкa:    D|--5--|
A|--5--|
e|--3--|

Ещё песни с аккордами исполнителя/группы «12 Stones»