My Life
12 Stones
12 StonesMy Life Прислать видеоурок Скачать GTP к этой песне
12 Stones My Life
Добавлено: — , Просмотров: 433 (+0)

  Добавить в избранное

My Life

2 paзa
|---------------------------------|
|---------------------------------|
|---2--3-2---2-----3-2------------|
|--------------0-------0----------|
|---------------------------------|
|-0---0----0-----0----------------|

|----------------------|
|----------------------|
|----------------------|
|-3-3------------------|
|-3-3------------------|
|-3-3------------------|

|-------------------------------------------|
|-------------------------------------------|
|---2---3-2----2---3-2----2---3-2---2---3-2-|
|-------------------------------------------|
|------------3---3------1---1-----0---0-----|
|-0---0-------------------------------------|

|-----------------------------------------------------|
|-----------------------------------------------------|
|---------------5-5-3-3-----------------3-3-----------|
|-0-x-x-3/5-5-5-5-5-3-3---0-x-x-3/5-5-5-3-3-3-3-------|
|-0-x-x-3/5-5-5-3-3-1-1---0-x-x-3/5-5-5-1-1-3-3-------|
|-0-x-x-3/5-5-5-----------0-x-x-3/5-5-5-----3-3-------|

|---------------------------------------------------|
|---------------------------------------------------|
|---------------5-5-3-3-2-2-2-2-2-2-2---------------|
|-0-x-x-3/5-5-5-5-5-3-3-2-2-2-2-2-2-2-3-3-3-3-5-5-5-|
|-0-x-x-3/5-5-5-3-3-1-1-0-0-0-0-0-0-0-3-3-3-3-5-5-5-|
|-0-x-x-3/5-5-5-----------------------3-3-3-3-5-5-5-|

|---------------------------------|
|---------------------------------|
|---------------------------------|
|-0-0-0-0-14-0-0-0-0-14-0-0-14----|
|-0-0-0-0-13-0-0-0-0-13-0-0-13----|
|-0-0-0-0-0--0-0-0-0-0--0-0-0-----|
pm..... pm..... pm.

|---------------------------------|
|---------------------------------|
|---------------------------------|
|-0-0-0-0-14-0-0-0-0-14-0-0-14----|
|-0-0-0-0-13-0-0-0-0-13-0-0-13----|
|-0-0-0-0-0--0-0-0-0-0--0-0-0-----|
pm..... pm..... pm.

|---------------------------------|
|---------------------------------|
|---------------------------------|
|-0-0-0-0-14-0-0-0-0-14-0-0-14----|
|-0-0-0-0-13-0-0-0-0-13-0-0-13----|
|-0-0-0-0-0--0-0-0-0-0--0-0-0-----|
pm..... pm..... pm.

|---------------------------------|
|---------------------------------|
|---------------------------------|
|-0-0-0-0-14-0-0-4-4-3-2-3-2-1----|
|-0-0-0-0-13-0-0-4-4-3-2-3-2-1----|
|-0-0-0-0-0--0-0-4-4-3-2-3-2-1----|
pm..... pm...............

Ещё песни с аккордами исполнителя/группы «12 Stones»