Open Your Eyes
12 Stones
12 StonesOpen Your Eyes Прислать видеоурок
12 Stones Open Your Eyes
Добавлено: — , Просмотров: 328 (+0)

  Добавить в избранное

Open Your Eyes

|--------------------|
|--------------------|
|----------11-11-----|
|-----------x--x-----|
|-*3-*3-*3--9--9-----|
|-*3-*3-*3-----------|

|----------------------------------------------------|
|----------------------------------------------------|
|-------11-11------11-11-------14-14-14-12-12--------|
|-0-0-0--x--x-0-0-0-x--x-10-10--x--x--x--x--x--------|
|-0-0-0--9--9-0-0-0-9--9-10-10-12-12-12-10-10--------|
|-0-0-0-------0-0-0------10-10-----------------------|

|-------------------------------------------------|
|-------3---2-------------------------------------|
|---2-----------2---2-----0---5---4---0---0---0---|
|-----0-------0---0---0---------------------------|
|-----------------------3---3---3---3---3---3---3-|
|-0-------0---------------------------------------|

|-------------------------------------------------|
|-------3---/7-7-5-3------------------------------|
|---2---------------------0---5-----5---5-7p5---5-|
|-----0---0----------0----------5/7---7-------7---|
|-----------------------3---3---------------------|
|-0-----------------------------------------------|

|-2-2h3-3p2-2p0------|
|--------------------|
|--------------------|
|--------------------|
|--------------------|
|--------------------|

|-9h10p9-------7h8p7-----------------|
|--------10----------8---8-10--------|
|-----------11---------9-------------|
|------------------------------------|
|------------------------------------|
|------------------------------------|

|-1h2-----2---2---2---2--2h3-----3---3p1---1---1---|
|--------------------------------------------------|
|--------------------------------------------------|
|-----0-0---0---0---0--0-----0-0---0-----0---0---0-|
|--------------------------------------------------|
|--------------------------------------------------|

|-------------------------|
|-------------------------|
|-11-11-11-11-11-11-11-11-|
|--x--x--x--x--x--x--x--x-|
|--9--9--9--9--9--9--9--9-|
|-------------------------|

Ещё песни с аккордами исполнителя/группы «12 Stones»