Running Out Of Pain
12 Stones
12 StonesRunning Out Of Pain Прислать видеоурок
12 Stones Running Out Of Pain
Добавлено: — , Просмотров: 362 (+0)

  Добавить в избранное

Running Out Of Pain

Db|-------------------------------------------------
Ab|-------------------------------------------------
Fb|--------0----0----------------0----0-------------
Cb|----2h4--------4p2--------2h4--------4p2---------
Gb|-------------------------------------------------
Cb|-2---------------------2-------------------------

Db|-------------------------------------------------
Ab|-------------------------------------------------
Fb|--------0----0------------------0----0-----------
Cb|----2h4--------4p2----------2h4--------4p2-------
Gb|-------------------------------------------------
Cb|-0-----------------------0-----------------------

Db|-------------------------------------------------
Ab|-------------------------------------------------
Fb|----------7-7-------7------9-9--------9----------
Cb|---------------9--9----9-------9-9-9----9--------
Gb|-7h9--7------------------------------------------
Cb|-------------------------------------------------

Db|-------------------------------------------------
Ab|-------------------------------------------------
Fb|-------------------5--------7--------------------
Cb|-2--------0--------5--------7--------------------
Gb|-2--------0--------3--------5--------------------
Cb|-2--------0--------------------------------------

Db|-------------------------------------------------
Ab|-------------------------------------------------
Fb|-------------------------------------------------
Cb|-2--2-2--x--2----0--0-0--x--0--------------------
Gb|-2--2-2--x--2----0--0-0--x--0--------------------
Cb|-2--2-2--x--2----0--0-0--x--0--------------------

Db|-----------------------------------------------
Ab|-----------------------------------------------
Fb|--9~---7h9--9p7------------------------
Cb|-------------9----------9p7--------------------
Gb|----------------------------9---7------
Cb|-----------------------------------------------

Db|-----------------------------------------------
Ab|-------8h10--10b11r10--8h10--------------------
Fb|--7h9------------------------------------------
Cb|-----------------------------------------------
Gb|-----------------------------------------------
Cb|-----------------------------------------------

Db|----------12-10----------------------------------------
Ab|--8h10p8--------12-10--8-------------12b---------------
Fb|---------------------------9---------------------------
Cb|-------------------------------------------------------
Gb|-------------------------------------------------------
Cb|-------------------------------------------------------

Ещё песни с аккордами исполнителя/группы «12 Stones»