Soulfire
12 Stones
12 StonesSoulfire Прислать видеоурок
12 Stones Soulfire
Добавлено: — , Просмотров: 386 (+0)

  Добавить в избранное

Soulfire

|--------------------------------|----------------------------|
|--------------------------------|----------------------------|
|-5h7-----7-----7----8-----8-----|-5h7-----7-----7--/10-10-10-|
|-0---0-0---0-0---0----0-0---0-0-|-0---0-0---0-0---0----------|
|--------------------------------|----------------------------|
|--------------------------------|----------------------------|

|----------------------------|--------------------------------|
|----------------------------|--------------------------------|
|-------5/7-7-7-8-8-8-8------|-------5/7-7-7-10-10-10-10-10---|
|-0-0-0-x-x-x-x-x-x-x-x------|-0-0-0-x-x-x-x-x--x--x--x--x----|
|-0-0-0-3/5-5-5-6-6-6-6------|-0-0-0-3/5-5-5-8--8--8--8--8----|
|-0-0-0----------------------|-0-0-0--------------------------|
    pm.                          pm.

|--------------------|
|--------------------|
|-----8-8-8-8--------|
|-0-0-x-x-x-x--------|
|-0-0-6-6-6-6--------|
|-0-0----------------|
  pm.

Ещё песни с аккордами исполнителя/группы «12 Stones»