Korn
22-shed
22-shed Korn
Добавлено: — , Просмотров: 348 (+0)

  Добавить в избранное

"Out of Control"
Korn

This song is awesome its rippin up the charts throughout Oregon
and Washington, pretty good for some teenagers

regular tuning
but a step down
Intro:PM all same distortion throughout
|----------------------------------------|
|----------------------------------------|
|----------------------------------------|
|-3--------------------------------------|
|-3-2-2-2-2----2-5/6-6-6-6--6------------|
|-1-0-0-0-0----0-3/4-4-4-4--4----4-3-1-0-|
Gtr. 1 plays that
Gtr. 2 plays this(with slide like thing??)
|----13---------/15\-/16\----\5---------------5--/17----18-|
|--------0--/13---------------------6-66-6-----------18----|
|-14----------------------------------------5--------------|
|--------------------------------3----33-3-----------------|
|----------------------------------------------------------|
|----------------------------------------------------------|
Verse 1 both gtrs play
|------------------------------------|
|------------------------------------|
|------------------------------------|
|------------------------------------|
|------------------------------------|
|-1-0-0--0-0-0--0--0-0-0---4-3-1-0---|
Chorus
|---------------------------------------------------|
|---------------------------------------------------|
|---------------------------------------------------|
|-6-6-6-6-8-8-8-8h10--------------------------------|
|-4-4-4-4-8-8-8-8-----------------------------------|
|-4-4-4-4-6-6-6-6------15\0-0--0-0-0-0--0---0-0-0-0-|
verse 2 same as 1
chorus
verse 3
         then this really fast
|---------|   |---------|
|---------|   |---------|
|---------|   |---------|
|---------|   |---------|
|---------|   |---------|
|-1-0-0-0-|   |-4-3-1-0-|
solo (over verse 1 riff)
whew this is tough this Dustin dude is good
and hes like 18
|-----------------------13h15h16h18-alot-of-times-13---15|
|-weired-tappin-shit---------------------------------16--|
|--like-rage/van-halen-----------------------------------|
|-----then-this------------------------------------------|
|--------------------------------------------------------|
|--------------------------------------------------------|
|--------------------------------------------------------|
|-16-16--16-16/17h18p17------17-15-17--15--13------------|
|------------------------18--------------------13-16\----|
|----------------------------------------------------/14-|
|--------------------------------------------------------|
|--------------------------------------------------------|
|--------------------------------------------------------|
|--------------------------------------------------------|
|--------------------------------------------more-weird-x|
|-/14-16--18b20r18--16------------------------scrapping-x|
|-----------------------16-14-15-17-18-------------\--x--|
|--------------------------------------15-------------\--|
|-------------------------------------------16-13\---\-/-|
|--------------------------------------------------------|
|---------------really fast------------------------------|
|----------------with harmonics--------------------------|
|-x-x-x--------------------------------------------------|
|-x-x-x------------------------------------5-3---0---0---|
|-x-x-x-1b3r1--1-0-0-1-0-1-1-1--1-0-0-0--1-----5---5-----|
                               wah till the end
|-----------------------------------------------------17-|
|-----------------------------------------------------18-|
|-----------------------------------------------/17---17-|
|---------------3-5--7--8--10----------------------------|
|-1--3-5----3-----------------\3-0--------0--1-----------|
|--------5-------------------------0--1-3----------------|
really fast alot more than this you get the picture. Fade out...
|-17-17h20--20-20-20-21-20-20-20-20-20-20-18-181818201818|
|-18-18-----------------18-18-18-18-18-18-18-181818181818|
|-17-17--17-17-17-17-17-------------------18-181818181818|
|-----------------------------------------18-181818181818|
|--------------------------------------------------------|
|--------------------------------------------------------|
Obviously the solo is way faster than its written
verse 1
chorus
verse 2
chorus
verse 3 really fast like Bonethugs
(music stops) Shit!!! nothing rhymes
with Shroud!!!!!! (into Outro/solo)