Rip it up
28 days
28 daysRip it up Прислать видеоурок
28 days Rip it up
Добавлено: — , Просмотров: 335 (+1)

  Добавить в избранное

"Upstyle Down"
Rip it up

Sweeet. I just learnt how to tab songs out. So here's one of my first tabs.
I think this works to standard tuning....so if it's wrong figure it out,
i only just started tabbing buttmunch! It ain't quite complete ay.

Intro:        E|-----------------------------------------------------|
B|-----------------------------------------------------|
G|-----------------------------------------------------|
D|-----------------------------------------------------|
A|------------2--2----4-5-4-2---2-2--------------------|
E|----4--4--------------------4------------------------| } x2

E|-----------------------------------------------------|
B|-----------------------------------------------------|
G|-----------------------------------------------------|
D|-----------------------------------------------------|
A|--------------2--2-xxxx---4-5-4-2---2-2--------------|
E|----4--4-xxxx---------------------4------------------|
(played throughout the whole song after the intro)
E|-----------------------------------------------------|
B|-----------------------------------------------------|
G|-----------------------------------------------------|
D|-----------------------------------------------------|
A|-----------------------------------------------------|
E|---0--0--0--3--4--5-5-5\6/5--4-3---------------------|

E|-----------------------------------------------------|
B|-----------------------------------------------------|
G|-----------------------------------------------------|
D|-----------------------------------------------------|
A|-----------------------------------------------------|
E|---0--0--0--3--4--5----------------------------------|

key
/=slide up
\=slide down
x=muted
h=hammer on
p=pull off