Laburantes
2 Minutos
2 Minutos Laburantes
Добавлено: — , Просмотров: 382 (+1)

 
Добавить в избранное

Laburantes

  A  D  C  G 
e------------
B------------
G----7--5----
D-7--7--5--5-
A-7--5--3--5-
E-5--------3-

INTRO REEF:    Nota: Para la REEF, deja sonando todas las notas,
no las apagues a menos a que la siguiente nota sea en
la misma cuerda, si no dejala sonando, asi como guitarra
clasica, que llevas el bajo con la guitarra.

e---------------------------------------------------------
B---------------------------------------------------------
G---------------------------------------------------------
D---2---3----3-2--5---5-3----3-2----2---3----3-2--5---7---
A-0---0----0--------0------0------0---0----0--------------
E---------------------------------------------------------

Continua:    e---------------------------------------------------------
B---------------------------------------------------------
G---------------------------------------------------------
D---2---3----3-2--5---5-3----3-2--------------------------
A-0---0----0--------0------0-----0...
E---------------------------------------------------------

INTRO2:        (Redoble)
A  D  C  G 
A  D  C  G 

VERSO:        A  D  C  G  } x8

CORO:        A  D  C  G  } x4
BurguИs, burguИs..

BRIDGE:        A  D  C  G  } x4

OUTRO:        A  D  C  G  } x3
         Laburantes!
A  D  C  G  A... 
         Laburanteeeeees!...

FIN.
DECIFRADA DECOCODIFICADA POR cHiTo(CHRISTOPHER fIGUEROA) Bajista para
"POSE 69" y "cHuchos tRistes". Punx!!!

Ещё песни с аккордами исполнителя/группы «2 Minutos»