Tema De Adrian
2 Minutos
2 MinutosTema De Adrian Прислать видеоурок
2 Minutos Tema De Adrian
Добавлено: — , Просмотров: 326 (+0)

 
Добавить в избранное

Tema De Adrian

  A  B  C  G  F 
e-----------------
B-----------------
G--2--4--5--------
D--2--4--5--5--3--
A--0--2--3--5--3--
E-----------3--1--

INTRO:        A B C   C B A   A G F   G 

VERSO:        A B  C              C   B A 
U-na noche..
A G  F           G 
A B  C              C   B A 
y la policМa..
A   G F      G 
A B  C                C B  A 
y tu mujer..
A  G  F            G 
A   B     C       C  B  A 
por haber..
A   G     F          G 

BRIDGE:        F   A   B C 
F   G   GGGGGG 

(RAPIDO)

VERSO:        C                        A 
Cuando salga..
F                     G 
C                           A 
no te preocupes nena..
F                      G 
C                                     A 
No, no..
F       G 

REEF:        C 
e-5--5-5-5-5-5-5-5--5-5--5-5-5-1--1-1-1-1-1-1-1--|
G------------------------------------------------|
D------------------------------------------------|
A------------------------------------------------|
E------------------------------------------------|

CONTINUA:    e-11--1-1-1-3--3-3-3-3-3-3-3-|
B-11--1-1-1-3--3-3-3-3-3-3-3-|
G----------------------------|
D----------------------------|
A----------------------------|
E----------------------------|

(LENTO)

VERSO:        A   B  C           C  B  A 
Cuando salga nena..
A   G  F              G 
A  B  C               C  B  A 
no te preocupes nena..
A   G  F              G         GGGGGGGG 

(RAPIDO)

VERSO:        C                        A 
Cuando salga nena..
F                     G 
C                           A 
no te preocupes nena..
F                      G 
C                                     A 
No, no..
F       G 

OUTRO:        C    A    F    G    A B C... 

FIN.
DECIFRADA DECOCODIFICADA POR cHiTo(CHRISTOPHER fIGUEROA) Bajista para
"POSE 69" y "cHuchos tRistes". Punx!!!

Ещё песни с аккордами исполнителя/группы «2 Minutos»