All Mixed Up
311
311All Mixed Up Прислать видеоурок
311 All Mixed Up
Добавлено: — , Просмотров: 444 (+0)

 
Добавить в избранное

"311"
All Mixed Up

Riff 1 (Clean):
   G#   A    B 
1|-4----5----7-7-7-7-7-7-
2|-4----5----7-7-7-7-7-7-
3|-5----6----8-8-8-8-8-8-
4|-6----7----9-9-9-9-9-9-
5|-6----7----9-9-9-9-9-9-
6|-4----5----7-7-7-7-7-7-

Riff 2 (w/Distortion):
   B    F#5 A5 
1|-------------------------
2|-4-4---------------------
3|-4-4---------------------
4|-4-4--4///7-7-7-7-7-7-7-7-
5|-2-2--4///7-7-7-7-7-7-7-7-
6|------2///5-5-5-5-5-5-5-5-
 -- or --
   B     F#5 A 
1|-----------0-0-0-0-0-0-0-0-
2|-4-4-------2-2-2-2-2-2-2-2-
3|-4-4-------2-2-2-2-2-2-2-2-
4|-4-4---4---2-2-2-2-2-2-2-2-
5|-2-2---4---0-0-0-0-0-0-0-0-
6|-------2-------------------

Riff 3 (Clean):
   B       A 
1|-7----7--5----5-
2|-7----7--5----5-
3|-8----8--6----6-
4|-9----9--7----7-
5|-9----9--7----7-
6|-7----7--5----5-

Song Structure:
Play Riff 1 } x4
Play Riff 1 over:
Play Riff 2 over:
No guitar over:
Play Riff 2 over:
Play Riff 1 over:
Play Riff 2 over:
No guitar over:
Play Riff 2 over:
Muted B (x2444x) over: } x4
Play Riff 3 over:
Play Riff 2 over:

Ещё песни с аккордами исполнителя/группы «311»