Beautiful Disaster
311
311Beautiful Disaster Прислать видеоурок
311 Beautiful Disaster
Добавлено: — , Просмотров: 464 (+0)

 
Добавить в избранное

"Transistor"
Beautiful Disaster

Riff 1a: (w/ heavy distortion)
e----------------------------------------------------------
B----------------------------------------------------------
G----------------------------------------------------------
D----------------------------------------------------------
A--2--0--2----------------0--------------------------------
E-------------3--2--3--2-----------------------------------

Riff 1b: (w/ heavy distortion)
e----------------------------------------------------------
B----------------------------------------------------------
G----------------------------------------------------------
D----------------------------------------------------------
A--2--0--------2------------------------------------------
E--------2--3--------------------------------------------

Riff 2: (w/ heavy distortion)
NOTE: There are two guitars playing two different parts simultaneously here,
one is using only the "B" string and one is using only the "G" string:
          e------------------------------------------------------------
Guitar #1 B--7----7--8--7--5--7--5--3----3--3--3--3--3--5--5--5--7--5--
          G------------------------------------------------------------
          D------------------------------------------------------------
          A------------------------------------------------------------
          E------------------------------------------------------------

          e------------------------------------------------------------
          B------------------------------------------------------------
Guitar #2 G--7----7--9--7--6--7--6--4----4--4--4--4--4--6--6--6--7--6--
          D------------------------------------------------------------
          A------------------------------------------------------------
          E------------------------------------------------------------

          e------------------------------------------------------------
Guitar #1 B--7----7--8--7--5--7--5--3----3--3--3--3--3--5--5--5--7--5--
          G------------------------------------------------------------
          D------------------------------------------------------------
          A------------------------------------------------------------
          E------------------------------------------------------------

          e------------------------------------------------------------
          B------------------------------------------------------------
Guitar #2 G--7----7--9--7--6--7--6--4----4--4--4--4--4--6--6--6--7--6--
          D------------------------------------------------------------
          A------------------------------------------------------------
          E------------------------------------------------------------

          e-----------------------------------------------------------------
Guitar #1 B--7--8--10---12--10--8---8--10--12--10--8--10--12--10--8--10--12-
          G-----------------------------------------------------------------
          D-----------------------------------------------------------------
          A-----------------------------------------------------------------
          E-----------------------------------------------------------------

          e-----------------------------------------------------------------
          B-----------------------------------------------------------------
Guitar #2 G--7--9--11---12--11--9---9--11--12--11--9--11--12--11--9--11--12-
          D-----------------------------------------------------------------
          A-----------------------------------------------------------------
          E-----------------------------------------------------------------

          e----------------------------------------------------------
Guitar #1 B--10--8--7--5--7--5--3-----3--3--3--3--3--5--5--5--7--5---
          G----------------------------------------------------------
          D----------------------------------------------------------
          A----------------------------------------------------------
          E----------------------------------------------------------

          e----------------------------------------------------------
          B----------------------------------------------------------
Guitar #2 G--11--9--7--6--7--6--4-----4--4--4--4--4--6--6--6--7--6---
          D----------------------------------------------------------
          A----------------------------------------------------------
          E----------------------------------------------------------

Riff 3: (with dirty distortion sound, perhaps less "gain" used)
   Bm     G      Em     F# 
e--2--2---3--3---0--0---2--2---------------------------
B--3--3---3--3---0--0---2--2---------------------------
G--4--4---4--4---0--0---3--3---------------------------
D------------------------------------------------------
A------------------------------------------------------
E------------------------------------------------------

Riff 4: (w/ heavy distortion)
e------------------------------------------------------
B------------------------------------------------------
G------------------------------------------------------
D--4--4-4--2-2-----------------------------------------
A--2--2-2--0-0-5--5--5-5-5--2--2-2-2-2--4--4--4-4-4----
E--------------3--3--3-3-3--0--0-0-0-0--2--2--2-2-2----

Riff 5a: (w/ heavy distortion)
e------------------------------------------------------
B------------------------------------------------------
G------------------------------------------------------
D--2--2--2--6--6--6--4--4--4--4--4--4------------------
A--2--2--2--4--4--4--4--4--4--2--2--2------------------
E--0--0--0--4--4--4--2--2--2--2--2--2------------------

Riff 5b: (w/ heavy distortion)
e------------------------------------------------------------
B------------------------------------------------------------
G------------------------------------------------------------
D--2-2--2--2--2--6-6--6--6--6--4-4--4--4--4--4-4--4--4--4----
A--2-2--2--2--2--4-4--4--4--4--4-4--4--4--4--2-2--2--2--2----
E--0-0--0--0--0--4-4--4--4--4--2-2--2--2--2--2-2--2--2--2----

Riff 5c: (w/ Heavy distortion, palm muffling the sound a bit)
e------------------------------------------------------------------
B------------------------------------------------------------------
G------------------------------------------------------------------
D-2-2-2-2-2-2-2-2-6-6-6-6-6-6-6-6-4-4-4-4-4-4-4-4-4-4-4-4-4-4-4-4--
A-2-2-2-2-2-2-2-2-4-4-4-4-4-4-4-4-4-4-4-4-4-4-4-4-2-2-2-2-2-2-2-2--
E-0-0-0-0-0-0-0-0-4-4-4-4-4-4-4-4-2-2-2-2-2-2-2-2-2-2-2-2-2-2-2-2--

Riff 6: (w/ heavy distortion)
e--------------------------------------
B--------------------------------------
G--------------------------------------
D-2--2--2------2--2------2-----2-------
A-2--2--2------2--2------2-----2-------
E-0--0--0--3b5-0--0--3b5-0-3b5-0-------

NOTE ON Riff 6: I don't think what I have listed above is exactly how this
part is played, but I can't figure it out just by listening. It sounds
like there may be two guitars playing two different things here, and that
they may be using a slide instead of a bend. Another suggestions as to how
you might play this part:
e--------------------------------------
B--------------------------------------
G--------------------------------------
D-2--2--2-------2--2-------------------
A-2--2--2-------2--2-------------------
E-0--0--0--3s12-0--0---3s12-0-3s12-0---

Solo:
NOTE: Hereфs the two simultaneous guitar thing again, one playing only the
"B" string, and one playing only the "G" string:
          e-----------------------------------------------------------
Guitar #1 B--7--8--10----12--14--15----14--15--17--15--17--19--17--19-
          G-----------------------------------------------------------
          D-----------------------------------------------------------
          A-----------------------------------------------------------
          E-----------------------------------------------------------

          e-----------------------------------------------------------
          B-----------------------------------------------------------
Guitar #2 G--7--9--11----12--14--16----14--16--18--16--18--19--18--19-
          D-----------------------------------------------------------
          A-----------------------------------------------------------
          E-----------------------------------------------------------

          e-----------------------------------------------
Guitar #1 B--20--19--17--17--15---15--14--15---14--12--14-
          G-----------------------------------------------
          D-----------------------------------------------
          A-----------------------------------------------
          E-----------------------------------------------

          e-----------------------------------------------
          B-----------------------------------------------
Guitar #2 G--21--19--18--18--16---16--14--16---14--12--14-
          D-----------------------------------------------
          A-----------------------------------------------
          E-----------------------------------------------

          e---------------------
Guitar #1 B--12--10--12--10--7--
          G---------------------
          D---------------------
          A---------------------
          E---------------------

          e---------------------
          B---------------------
Guitar #2 G--12--11--12--11--7--
          D---------------------
          A---------------------
          E---------------------

Lyrics/Song Structure:
Play Riff 1a (x7)
Play Riff 1b (x1)
Play Riff 2 (x1)
Play Riff 3 (x2) over:
Play Riff 4 (x2) over:
Play Riff 1a (x3)
Play Riff 1b (x1)
Play Riff 3 (x2) over:
Play Riff 4 (x2) over:
Play Riff 1a (x3)
Play Riff 1b (x1)
Play Riff 5a (x2) over:
Play Riff 5b (x2) over:
Play Riff 5c (x2) over:
Play Riff 6 (x2)
Play Solo
Play Riff 3 (x2) over:
Play Riff 4 (x2) over:
Play Riff 1a (x3)
Play Riff 1b (x1)
Play Riff 5a (x2) over:
Play Riff 5b (x2) over:
Play Riff 5c (x2) over:
Play Riff 6 (x4)

Ещё песни с аккордами исполнителя/группы «311»