Borders
311
311Borders Прислать видеоурок
311 Borders
Добавлено: — , Просмотров: 405 (+1)

 
Добавить в избранное

"Transistor"
Borders

Tab key:
h = hammer on
p = pull off
/ = slide, after you pick first note, then slide to second

Intro: (w/ heavy distortion)
e------------------------------------------------------
B------------------------------------------------------
G------------------------------------------------------
D--2--2----------2---3----4----------------------------
A--0--0--2--2----0---1----2----------------------------
E--------0--0-------------2----------------------------

Riff 1: (w/ heavy distortion)
e-------------------------------------------
B-------------------------------------------
G-------------------------------------------
D-------------------------------------------
A--7--7--------7--8--9--7/6--7--------------
E--5--5--0--0--5--6--7--5/4--5--------------

Riff 2a: (w/ heavy distortion)
e-----------------------------------------------
B-----------------------------------------------
G-----------------------------------------------
D-----------------------------------------------
A-----------------------------------------------
E--0--5h6-5--0--5p4-5--7------------------------

Riff 2b: (palm muted, w/ heavy distortion)
e-------------------------------------------------------
B-------------------------------------------------------
G-------------------------------------------------------
D-------------------------------------------------------
A-2-2-7s8-7--7-7-7----2-2--7s6-7-9----------------------
E-0-0-5s6-5--5-5-5----0-0--5s4-5-7----------------------

Chorus:
e-----------------------------------------------------------
B-----------------------------------------------------------
G-----------------------------------------------------------
D-----------------------------------------------------------
A-----------------------------------------------------------
E-0-2--0-2--0-2--0-2--0-2-0-2--0-3--0-3--0-3--0-3--0-3-0-3--

e-----------------------------------------------------------
B-----------------------------------------------------------
G-----------------------------------------------------------
D-----------------------------------------------------------
A----------------------------------------------2h3p2p0------
E-1-3--1-3--1-3--1-3--1-3-1-3--0-2--0-2--0-2-0----------2p0-

Ending:
e-----------------------------------------------
B-----------------------------------------------
G-----------------------------------------------
D-----------------------------------------------
A-----------------------------------------------
E--0h2--4-7--3-6--2-5--1-4--0-------------------

Ends:
  F5 
D-4--
A-4--
E-2--

Lyrics/Song Structure:
Play Intro (x4)
Play Riff 1 over:
Play Riff 2a over:
Play Riff 2b over:
Play Chorus over:
Play Intro (x4)
Play Riff 1 over:
Play Riff 2a over:
Play Riff 2b over:
Play Chorus over:
Play Ending (x3)
End on an F5 

Ещё песни с аккордами исполнителя/группы «311»