Brodels
311
311Brodels Прислать видеоурок
311 Brodels
Добавлено: — , Просмотров: 487 (+1)

 
Добавить в избранное

"311"
Brodels

Riff 1a:
   C#5/Ab B5/F# C#5/Ab B5/F# C#5/Ab B5/F# C#5/Ab B5/F# E5/B D#5/Bb 
1|------------------------------------------------------------
2|------------------------------------------------------------
3|------------------------------------------------------------
4|-6------4-----6------4-----6------4-----6------4/////9----8-
5|-4------2-----4------2-----4------2-----4------2/////7----6-
6|-4------2-----4------2-----4------2-----4------2/////7----6-

Riff 1b:
   C#5/Ab B5/F# C#5/Ab B5/F# C#5/Ab B5/F# C#5/Ab B5/F# N.C. 
1|-------------------------------------------------------
2|-------------------------------------------------------
3|-------------------------------------------------------
4|-6------4-----6------4-----6------4-----6------4-----4-
5|-4------2-----4------2-----4------2-----4------2-----1-
6|-4------2-----4------2-----4------2-----4------2-------

Riff 2:
   G5  F#5 G5  F#5 G5      F#5 G5  F#5 G5  A5  F#5 
1|-----------------------------------------------
2|-----------------------------------------------
3|-----------------------------------------------
4|-5---4---5---4---5---5---4---5---4---5---7---4-
5|-5---4---5---4---5---5---4---5---4---5---7---2-
6|-3---2---3---2---3---3---2---3---2---3---5---2-

Riff 3:
   A5   G5     A5 G5 A5 G5     Bb5 A5 G5 
1|--------------------------------------
2|--------------------------------------
3|--------------------------------------
4|-7-7--5-5-5--7--5--7--5-5-5--8---7--5-
5|-7-7--5-5-5--7--5--7--5-5-5--8---7--5-
6|-5-5--3-3-3--5--3--5--3-3-3--6---5--3-

Chorus a:
   G5 F#5 F5   G5 A5 Bb5 A5 G5 F#5 E5       F#5 F5 
1|--------------------------------------------------
2|--------------------------------------------------
3|--------------------------------------------------
4|-5--4---3-3--5--7--8---7--5--4---2-2-2-2--4---3-3-
5|-5--4---3-3--5--7--8---7--5--2---2-2-2-2--4---3-3-
6|-3--2---1-1--3--5--6---5--3--2---0-0-0-0--2---1-1-

Chorus b:
   G5 A5 Bb5 A5 G5   F#5   A5   G5 F#5 F5 
1|---------------------------------------
2|---------------------------------------
3|---------------------------------------
4|-5--7--8---7--5-5--4-4---2-2-----------
5|-5--7--8---7--5-5--2-2---0-0--5--4---3-
6|-3--5--6---5--3-3--2-2--------3--2---1-

Fill 1:
   E5 F#5 G5 E5 F#5 D5/A C#5/Ab B5/F# 
1|--------------------------------
2|--------------------------------
3|--------------------------------
4|------------------7----6------4-
5|-2--4---5--2--4---5----4------2-
6|-0--2---3--0--2---5----4------2-

Ending:
   D5/A C#5/Ab D5/A C#5/Ab D5/A C#5/Ab B5/F#  C#5/Ab D5/A C#5/Ab 
1|----------------------------------------------------------
2|----------------------------------------------------------
3|----------------------------------------------------------
4|-7----6------7----6------7----6-6-6--4-4-4--6------7----6-
5|-5----4------5----4------5----4-4-4--2-2-2--4------5----4-
6|-5----4------5----4------5----4-4-4--2-2-2--4------5----4-

Lyrics/Song Structure:
Play Riff 1 (a+b) over:
Play Riff 2 over:
Play Riff 3 over:
Play Chorus (a+b) over:
Play Riff 1 (a+b) over:
Play Riff 2 over:
Play Riff 3 over:
Play Chorus (a+b) over:
Play Ending over:

Ещё песни с аккордами исполнителя/группы «311»