DLMD
311
311DLMD Прислать видеоурок
311 DLMD
Добавлено: — , Просмотров: 470 (+0)

 
Добавить в избранное

"311"
DLMD

Intro - A (w/Distortion):
   N.C.    C5 (add B)/G   G5 F5 A5 
1|-----------------------------
2|-----------------------------
3|---------4---------------------
4|---------5-------------5--3--7-
5|-5-3-----3------5-3----5--3--7-
6|-----5---3----------5--3--1--5-

Intro - B (w/Distortion):
   Bb5              A5 
1|----------------------
2|----------------------
3|----------------------
4|-8-8-8-8-8-8-8-8--7//-
5|-8-8-8-8-8-8-8-8--7//-
6|-6-6-6-6-6-6-6-6--5//-

Verse (w/Distortion):
   N.C. 
1|-----------------------------------
2|-----------------------------------
3|-----------------------------------
4|---------------------------3-3-----
5|-3-5-3-5--3-5-3-5--3-5-3-5-----3-5-
6|-----------------------------------

Chorus (w/Distortion):
     N.C.      F#5 N.C.      F#5 
1|----------------------------------------
2|----------------------------------------
3|----------------------------------------
4|-----------4---------------4--4-4--4--4-
5|-7-5-------4---7-5---------4--4-4--4--4-
6|-----7-5-3-2-------7-5-3-2-2--2-2--2--2-

Ending (w/Distortion):
   F#5 
1|------------------------
2|------------------------
3|------------------------
4|-4--4-4-4--4-4-4--4-4-4-
5|-4--4-4-4--4-4-4--4-4-4-
6|-2--2-2-2--2-2-2--2-2-2-

Song Structure:
Play Intro - A over:
Play Intro - B
Play Verse over:
Play Chorus over:
Play Verse over:
Play Chorus over:
Play Verse over:
Play Chorus over:
Play Ending over:
End on a D5  (x577xx)

Ещё песни с аккордами исполнителя/группы «311»