Do You Right
311
311Do You Right Прислать видеоурок
311 Do You Right
Добавлено: — , Просмотров: 383 (+0)

 
Добавить в избранное

"Music"
Do You Right

Riff 1:
  N.C. 
1|-------------------------
2|-------------------------
3|-------------------------
4|-------------------------
5|-------------------------
6|0--4--5--0--4--5--0--4--5

Riff 2:
  E5                                                      D5 
1|------------------------------------------------------------------------
2|9-9-9-9-9--9--9-9--9--9-9--9-9-9-9-9--9--9-9--9--9-9-9--7-7--7-7-7-7///0
3|9-9-9-9-9--9--9-9--9--9-9--9-9-9-9-9--9--9-9--9--9-9-9--7-7--7-7-7-7///0
4|9-9-9-9-9--9--9-9--9--9-9--9-9-9-9-9--9--9-9--9--9-9-9--7-7--7-7-7-7///0
5|7-7-7-7-7--7--7-7--7--7-7--7-7-7-7-7--7--7-7--7--7-7-7--5-5--5-5-5-5///0
6|------------------------------------------------------------------------

Riff 3:
  E               F/Cmaj7add4 (??) 
1|0--0-0--0--0-0--0--0-0--0--0-0
2|0--0-0--0--0-0--0--0-0--0--0-0
3|1--1-1--1--1-1--2--2-2--2--2-2
4|2--2-2--2--2-2--3--3-3--3--3-3
5|2--2-2--2--2-2--3--3-3--3--3-3
6|0--0-0--0--0-0--1--1-1--1--1-1

Riff 4:
  A    D    E    D 
1|0----2----0----2
2|2----3----0----3
3|2----2----1----2
4|2----0----2----0
5|0----0----2----0
6|----------0-----

Chorus:
Guitar 1:
  A     D     E     D 
1|0--0--2--2--0--0--2--2--
2|2--2--3--3--0--0--3--3--
3|2--2--2--2--1--1--2--2--
4|2--2--0--0--2--2--0--0--
5|0--0--0--0--2--2--0--0--
6|------------0--0--------
Guitar 2: Play the open 5 (A) string during the entire Chorus
Fill 1:
  N.C. 
1|-------------------------------
2|10-9-7-------------------------
3|-------9-7-6---6-7-7-6---------
4|-------------9---------9-7-7///
5|-------------------------------
6|-------------------------------

Lyrics/Song:
Play Riff 1 (x7)
Play Riff 2 over:
Play Riff 3 over:
Play Riff 2 over:
Play Riff 3 over:
Play Riff 1 (x3)
Play Chorus over:
Play Fill 1
Play Riff 2 over:
Play Riff 3 over:
Play Chorus over:
Play Riff 4 over:
Play Chorus over:
Play Fill 1
Play Riff 1 (x4)

Ещё песни с аккордами исполнителя/группы «311»