Don't Stay Home
311
311Don't Stay Home Прислать видеоурок
311 Don't Stay Home
Добавлено: — , Просмотров: 375 (+0)

 
Добавить в избранное

"311"
Don't Stay Home

Riff 1 - A (w/Distortion):
   G                Bm 
1|--------------------------------
2|------------------3-3-3-3-3-3-3-
3|-4-4-4-4-4-4-4-4--4-4-4-4-4-4-4-
4|-5-5-5-5-5-5-5-5--4-4-4-4-4-4-4-
5|-5-5-5-5-5-5-5-5--2-2-2-2-2-2-2-
6|-3-3-3-3-3-3-3-3----------------

Riff 1 - B (w/Distortion):
   G                E 
1|--------------------
2|--------------------
3|-4-4-4-4-4-4-4-4--1-
4|-5-5-5-5-5-5-5-5--2-
5|-5-5-5-5-5-5-5-5--2-
6|-3-3-3-3-3-3-3-3--0-

Chorus - A (w/Distortion):
   E5  E  E5  E  A5  A  A5  A  B5  B  B5  B  A5  A  A5  A 
1|--------------------------------------------------------
2|-------------------2------2------4------4------2------2-
3|-----1------1------2------2------4------4------2------2-
4|-----2------2--2-2-2--2-2-2--4-4-4--4-4-4--2-2-2--2-2-2-
5|-2-2-2--2-2-2--0-0-0--0-0-0--2-2-2--2-2-2--0-0-0--0-0-0-
6|-0-0-0--0-0-0-------------------------------------------

Chorus - B (w/Distortion):
   E5  E  E5  E  A5  A  A5  A  B5  B  B5  B  B5  B  B5  B 
1|--------------------------------------------------------
2|-------------------2------2------4------4------4------4-
3|-----1------1------2------2------4------4------4------4-
4|-----2------2--2-2-2--2-2-2--4-4-4--4-4-4--4-4-4--4-4-4-
5|-2-2-2--2-2-2--0-0-0--0-0-0--2-2-2--2-2-2--2-2-4--2-2-2-
6|-0-0-0--0-0-0-------------------------------------------

Bridge A (w/Distortion):
   E5 
1|------------------
2|------------------
3|------------------
4|-2----2----2----2-
5|-2----2----2----2-
6|-0----0----0----0-

Bridge B (w/Distortion):
   N.C. 
1|-------------------------
2|-------------------------
3|-------------------------
4|---------------------1-2-
5|---2-0---2-1-0-2-4-2-----
6|-0-----4-----------------

Song Structure:
Drum Intro
Play Riff 1 - A over:
Play Riff 1 - B over:
Play Chorus over:
Play Chorus - B } x1
Play Riff 1 - A over:
Play Riff 1 - B over:
Play Chorus over:
Play Chorus - B } x1
Play Riff 1 - A over:
Play Riff 1 - B over:
Play Bridge A } x1
Play Bridge B over:
Drum interlude
Play Chorus over:
Play Chorus - B } x1
End on E5  (022xxx)

Ещё песни с аккордами исполнителя/группы «311»