Down
311
311Down Прислать видеоурок
311 Down
Добавлено: — , Просмотров: 319 (+0)

 
Добавить в избранное

"311"
Down

Riff 1a (w/Distortion):
   A5       G5   F#5  G5 
1|------------------------
2|------------------------
3|------------------------
4|-7-7-7-7--5-5--4-4--5-5-
5|-7-7-7-7--5-5--4-4--5-5-
6|-5-5-5-5--3-3--2-2--3-3-

Riff 1b (w/Distortion):
   A5       G5  F#5 G5  F#5 
1|------------------------
2|------------------------
3|------------------------
4|-7-7-7-7--5---4---5---4-
5|-7-7-7-7--5---4---5---4-
6|-5-5-5-5--3---2---3---2-

Chorus (w/Distortion):
   E5            G#5    F#5  G#5 
1|-------------------------------
2|-------------------------------
3|-------------------------------
4|-2-2-2-2--2-2--6-6-6--4-4--6-6-
5|-2-2-2-2--2-2--6-6-6--4-4--6-6-
6|-0-0-0-0--0-0--4-4-4--2-2--4-4-

Bridge - Part A (w/Distortion):
  C#5/Ab E5          F#5 G5  G#5 E5 
1|----------x-x-x-x-----------------x-x-x-x-
2|----------x-x-x-x-----------------x-x-x-x-
3|----------x-x-x-x-----------------x-x-x-x-
4|-6-----2--x-x-x-x--4///5///6---2--x-x-x-x-
5|-4-----2--x-x-x-x--4///5///6---2--x-x-x-x-
6|-4-----0--x-x-x-x--2///3///4---0--x-x-x-x-

Bridge - Part B (w/Distortion):
   E5                F#5 G5  G#5 A5 
1|---------------------------------
2|---------------------------------
3|---------------------------------
4|-2-2-2-2-2-2-2-2---4---5---6---7-
5|-2-2-2-2-2-2-2-2---4---5---6---7-
6|-0-0-0-0-0-0-0-0---2---3---4---5-

Song Structure:
Intro: Play Riff 1a w/Heavy distortion } x2
Play Riff 1a over:
Play Riff 1b over:
Play Riff 1a over:
Play Riff 1b over:
Play Chorus over:
Play Riff 1a over:
Play Riff 1b over:
Play Chorus over:
Play Bridge - Part A } x4
Play Bridge - Part B } x4
Play Riff 1a over:
Play Riff 1b over:
Play Riff 1a over:
Play Riff 1b over:
Play Chorus over:
Play Chorus (quiet) over:
Play Chorus over:
Play Bridge - Part A } x4
Play Bridge - Part A - Add an extra E5  whenever E5  is played } x4
Play Bridge - Part B } x4

Ещё песни с аккордами исполнителя/группы «311»