Electricity
311
311Electricity Прислать видеоурок
311 Electricity
Добавлено: — , Просмотров: 283 (+1)

 
Добавить в избранное

"Transistor"
Electricity

Riff 1a:
(Before drums and bass guitar come in)
e-----------------------------------------------------
B-----------------------------------------------------
G-----------------------------------------------------
D---7--7--7-----------------5--5--5--4--4--4--4--4----
A---5--5--5--4--4--4--4--4--3--3--3--2--2--2--2--2----
E------------2--2--2--2--2----------------------------

Riff 1b:
e----------------------------------------------------
B----------------------------------------------------
G----------------------------------------------------
D---7--7--7--4--4--4--4--4--5--5--5--4--4--4--4--4---
A---5--5--5--4--4--4--4--4--3--3--3--2--2--2--2--2---
E---5--5--5--2--2--2--2--2--3--3--3--2--2--2--2--2---

Riff 2:
  E5                  F#5      G5       F#5         E5       F#5      G5 
e-----------------------------------------------------------------------------
B-----------------------------------------------------------------------------
G-----------------------------------------------------------------------------
D-2--2--2--2--2----2--4--4--4--5--5--5--4--4--------2--2--2--4--4--4--5--5--5-
A-2--2--2--2--2----2--4--4--4--5--5--5--4--4------2-2--2--2--4--4--4--5--5--5-
E-0--0--0--0--0----0--2--2--2--3--3--3--2--2--0-3---0--0--0--2--2--2--3--3--3-
  F#5 
e-----------------------------------------------------------------------
B-----------------------------------------------------------------------
G-4--4--------------------------------------------------------------9---
D-4--4------NOTE: While one guitar plays the low E5 listed on-------9---
A-2--2------------the line above, a second guitar plays this chord:-7---
E-------------------------------------------------------------------0---

Riff 3a:
e------------------------------------------------------------------------
B------------------------------------------------------------------------
G------------------------------------------------------------------------
D--7--5--4--5---7--5---4--5--7--5--4-------------------------------------
A--7--5--4--5---7--5---4--5--7--5--4-------------------------------------
E--5--3--2--3---5--3---2--3--5--3--2-------------------------------------

Riff 3b:
e-------------------------------------------------------------------------
B-------------------------------------------------------------------------
G-------------------------------------------------------------------------
D--7-7-5--4--5-5--7--5-5--4--5--7--5-5-4-4--------------------------------
A--7-7-5--4--5-5--7--5-5--4--5--7--5-5-4-4--------------------------------
E--5-5-3--2--3-3--5--3-3--2--3--5--3-3-2-2--------------------------------

Bridge:
e------------------------------------
B------------------------------------
G------------------------------------
D--2---------------------------------
A--2----5----3----2----0-------------
E--0------------------------3--------

Lyrics/Song Structure:
Play Riff 1a (x2)
Play Riff 1b over:
Play Riff 2 over:
Play Riff 3a over:
Play Bridge (x1)
Play Riff 1b over:
Play Riff 2 over:
Play Riff 3a over:
Play "E5" over:

Ещё песни с аккордами исполнителя/группы «311»