Freak Out
311
311Freak Out Прислать видеоурок
311 Freak Out
Добавлено: — , Просмотров: 283 (+0)

 
Добавить в избранное

'Music'
Freak Out

Intro/Riff 1:
  N.C. 
1|----------------------------------------------------------------------
2|----------------------------------------------------------------------
3|---------------------------------0-------------------------------4-2-0
4|0-2-2-2-0-2-0-2--0-2-2-2-0-2-0-2---0-2-2-2-0-2-0-2--0-2-2-2-0-2-------
5|----------------------------------------------------------------------
6|----------------------------------------------------------------------

Riff 2:
  D5  N.C.     C5     B5 C5 D5   N.C.    C5 B5 C5     B5 C5 
1|5\------------------------5\----------------------------
2|7\-----------5-5-5--4--5--7\-----------5--4--5---5--4--5
3|7\------5-7--5-5-5--4--5--7\------5-7--5--4--5---5--4--5
4|7\--5-7------5-5-5--4--5--7\--5-7------5--4--5---5--4--5
5|5\-----------3-3-3--2--3--5\-----------3--2--3---3--2--3
6|--------------------------------------------------------

Riff 3:
   (A)    (C)  (A)  (C)  (D) 
1|---------------------
2|---------------------
3|---------------------
4|---------------------
5|0-0-0-3---0---3---5--
6|---------------------

Chorus:
  E       A       D   A   E 
1|0---0---0---0---2---0---0
2|0---0---2---2---3---2---0
3|1---1---2---2---2---2---1
4|2---2---2---2---0---2---2
5|2---2---0---0---0---0---2
6|0---0-------------------0

Riff 3:
  E5          D5        N.C. 
1|-----------------------------
2|9--9--9--9--7--7--7----------
3|9--9--9--9--7--7--7----------
4|9--9--9--9--7--7--7---0----0-
5|7--7--7--7--5--5--5----3-0--3
6|-----------------------------

Riff 4:
  A5    C5  A5    C5 G5 G#5 A5    C5  A5    C5 G5 G#5 A5 
1|-----------------------------------------------------------
2|------5---------5---------------5---------5----------------
3|------5---------5---------------5---------5----------------
4|7-7-7-5---7-7-7-5--5--6---7-7-7-5---7-7-7-5--5--6---7-7-7-7
5|7-7-7-3---7-7-7-3--5--6---7-7-7-3---7-7-7-3--5--6---7-7-7-7 } x5
6|5-5-5-----5-5-5----3--4---5-5-5-----5-5-5----3--4---5-5-5-5

Ending Riff:
  N.C. 
1|---------------
2|---------------
3|---------------
4|--------0------
5|----0-2---2-0--
6|0-3-----------3

Lyrics and Song Structure:
Play Riff 1 (x3)
Play Riff 2 over:
Play Riff 1 (x1.5)
No guitar over:
Play Riff 3 over:
Play Riff 2 over:
Play Chorus over:
Play Riff 1 (x1)
Play Riff 3 over:
Play Riff 4 over:
Play Riff 3 over:
Play Riff 4 over:
Play Chorus over:
Play Ending Riff over:

Ещё песни с аккордами исполнителя/группы «311»