Guns (are for pussies)
311
311Guns (are for pussies) Прислать видеоурок
311 Guns (are for pussies)
Добавлено: — , Просмотров: 344 (+0)

 
Добавить в избранное

"311"
Guns (are for pussies)

Riff A (w/Distortion):
   N.C. 
1|-------------------------------------------------------
2|-------------------------------------------------------
3|-------------------------------------------------------
4|-------------------------------------------------------
5|-0-4-0-4-5--5--0-4-0-4-5--5----------------------------
6|----------------------------0-2-0-2-3--3--0-2-0-2-3--3-

Riff B (w/Distortion):
   N.C. 
1|-------------------------------------------------
2|-------------------------------------------------
3|-------------------------------------------------
4|-------------------------------------------------
5|------------2----------------------3--5--2--0----
6|-1--3--3-3-----3--3-3---1--3--3-3--------------3-

Chorus (w/Distortion):
   N.C. 
1|----------------------------
2|----------------------------
3|----------------------------
4|----------------------------
5|----------------------------
6|-0-5-0-0-5--5--0-3-2-0-2--2-

Ending (w/Distortion):
   E5     G5 F#5 G5 E5     G5 F#5 G5 F5     G5 F#5 G5 F5       G5 F#5 F5 
1|----------------------------------------------------------------------
2|----------------------------------------------------------------------
3|----------------------------------------------------------------------
4|----------------------------------------------------------------------
5|-2-2-2--5-5-4--5--2-2-2--5-5-4--5--3-3-3--5-5-4--5--3--3--3--5-5-4--3-
6|-0-0-0--3-3-2--3--0-0-0--3-3-2--3--1-1-1--3-3-2--3--1--1--1--3-3-2--1-

Song Structure:
Play Riff A over:
Play Riff B over:
Play Chorus (x2) over:
Play Riff A over:
Play Riff B over:
Play Chorus (x2) over:
Play Ending (x2)
End on E5  (022xxx)

Ещё песни с аккордами исполнителя/группы «311»