Hive
311
311Hive Прислать видеоурок
311 Hive
Добавлено: — , Просмотров: 494 (+0)

 
Добавить в избранное

"311"
Hive

Intro:
   E5 
1|---------------------------------
2|---------------------------------
3|-2-2-2-2-2-2-2-2-2-2-2-2-2-2-2-2-
4|-2-2-2-2-2-2-2-2-2-2-2-2-2-2-2-2-
5|-0-0-0-0-0-0-0-0-0-0-0-0-0-0-0-0-
6|---------------------------------

Verse a:
   E5 F5 A5/E A#5/F  E5 F5 A5/E A#5/F 
1|------------------------------------
2|------------------------------------
3|--------2---3---3---------2---3---3-
4|-2--3---2---3---3--2--3---2---3---3-
5|-2--3---0---1---1--2--3---0---1---1-
6|-0--1---0---1-0-1--0--1---0---1-0-1-
(Or replace open E  (0) with another A5/E .)

Verse b:
   E5 F5 A5/E A#5/F  E5 F5 A5/E A#5/F C5 A#5 
1|-----------------------------------------
2|-----------------------------------------
3|--------2---3---3---------2----3----5--3-
4|-2--3---2---3---3--2--3---2----3----5--3-
5|-2--3---0---1---1--2--3---0----1----3--1-
6|-0--1---0---1-0-1--0--1---0----1---------
(Or replace open E  (0) with another A5/E .)

Pre-Chorus:
Play (x3):
   N.C. 
1|---------------------
2|---------------------
3|---------------------
4|---------------------
5|-----------------2-3-
6|-0-2-0-2-3-5-3-2-----
then:
   N.C. 
1|---------------------------
2|---------------------------
3|---9-------------------9//-
4|-----8---8-------8---8-----
5|-------7---7---7---7-------
6|-0-----------6-------------

Chorus a:
   B5        D5  B5 D5 B5         D5 B5 D5 
1|----------------------------------------
2|----------------------------------------
3|----------------------------------------
4|----------------------------------------
5|-2-2-2-2-2--5--2--5--2-2-2-2-2--5--2--5-
6|-2-2-2-2-2--5--2--5--2-2-2-2-2--5--2--5-

Chorus b:
   E5  F#5 G5 A5   Bb5 B5  A5 
1|-----------------------------------
2|-----------------------------------
3|-----------------------------------
4|-2---4---5---7---8---9---7-7-7-7-7-
5|-2---4---5---7---8---9---7-7-7-7-7-
6|-0---2---3---5---6---7---5-5-5-5-5-

Song Structure:
Play Intro
Play Verse (a+b) over:
Play Pre-Chorus over:
Play Chorus a over:
Play Chorus b over:
Play Verse (a-b) over:
Play Pre-Chorus over:
Play Chorus a over:
Play Chorus b over:
Play Verse (a-b) over:
Play Pre-Chorus over:
Play Chorus a over:
Play Chorus b
Play E5 , F5 , A5 , Bb5 

Ещё песни с аккордами исполнителя/группы «311»