Homebrew
311
311Homebrew Прислать видеоурок
311 Homebrew
Добавлено: — , Просмотров: 352 (+1)

 
Добавить в избранное

"Grassroots"
Homebrew

Intro/Riff 1:    1|---------------------
2|---------------------
3|---------------------
4|--2-2-0---0-2-2-0----
5|--------2---------2-0
6|0--------------------

Riff 2:          E5            F5 
1|---------------
2|---------------
3|---------------
4|2-2-2-2-2-2-2-3
5|2-2-2-2-2-2-2-3
6|0-0-0-0-0-0-0-1

Riff 3:          A                   A 
1|5-5-5-x-x-x-x-x     9--9--9--x-x-x-x-x
2|5-5-5-x-x-x-x-x     10-10-10-x-x-x-x-x
3|6-6-6-x-x-x-x-x  or 9--9--9--x-x-x-x-x
4|7-7-7-x-x-x-x-x     ------------------
5|7-7-7-x-x-x-x-x     ------------------
6|5-5-5-x-x-x-x-x     ------------------

Riff 4:          G5        C5    B5    A5 
1|---------------------------
2|----------5-5-5-4-4-4-2-2-2
3|----------5-5-5-4-4-4-2-2-2
4|5-5-5-5-5-5-5-5-4-4-4-2-2-2
5|5-5-5-5-5-3-3-3-2-2-2-0-0-0
6|3-3-3-3-3-X-X-X-X-X-X-X-X-X

Play Riff 3 part again
Play Riff 4 } x4

Ending:         G5 C5 A             G5 C5 E 
1|--3-0-0-0-0-0-0-0-0----3-0
2|--5-2-2-2-2-2-2-2-2----5-0
3|--5-2-2-2-2-2-2-2-2----5-1
4|5-5-2-2-2-2-2-2-2-2--5-5-2
5|5-3-0-0-0-0-0-0-0-0--5-3-2
6|3--------------------3---0

Play Ending } x2

Ещё песни с аккордами исполнителя/группы «311»