Jackolantern's Weather
311
311Jackolantern's Weather Прислать видеоурок
311 Jackolantern's Weather
Добавлено: — , Просмотров: 303 (+0)

 
Добавить в избранное

"311"
Jackolantern's Weather

Intro:
   G5 (add C#)                             G5 
1|-9-9-9-9--9-9-9-9--9-9--9-9-9-9--9-9-9--10-10-10-10-10-10-
2|-8-8-8-8--8-8-8-8--8-8--8-8-8-8--8-8-8---8--8--8--8--8--8-
3|-7-7-7-7--7-7-7-7--7-7--7-7-7-7--7-7-7---7--7--7--7--7--7-
4|----------------------------------------------------------
5|----------------------------------------------------------
6|----------------------------------------------------------

Riff 1:
   N.C. 
1|----------------------------
2|----------------------------
3|----------------------------
4|----------------------------
5|---------------5--3-3-3-2-0-
6|-3-5-3-5-3-5-3--------------

Riff 2:
   N.C. 
1|----------------------------------------
2|----------------------------------------
3|----------------------------------------
4|----------------------------------------
5|-5-0-5-7--5-0-5-7--5-0-5-0-5-7--5-0-5-7-
6|----------------------------------------

Chorus:
   N.C. 
1|--------------------------------------------
2|--------------------------------------------
3|--------------------------------------------
4|--------------------------------------------
5|-------1-1-2-4-2-4-2------------1-1-2-4-2-4-
6|-4-4-4---------------4-2--4-4-4-------------

Riff 3:
   A5  N.C.        A5  N.C.        A5  N.C.        A5    (G6)   (A6) 
1|------------------------------------------------------------------
2|------------------------------------------------------------------
3|------------------------------------------------------------------
4|----------------------------------------------------------2-----4-
5|-7-7-------------7-7-------------7-7-------------7-7----2-----4---
6|-5-5-3-2-3-3-2-3-5-5-3-2-3-3-2-3-5-5-3-2-3-2-3-2-5-5--3-----5-----

Ending Riff a:
    (F#5)                       N.C. 
1|---------------------------------
2|---------------------------------
3|---------------------------------
4|---------------------------------
5|-4-----4-----4---4-----4-----4-5-
6|---2-2---2-2---2---2-2---2-2-----

Ending Riff b:
   F#5         G5 
1|---------------
2|---------------
3|---------------
4|-4--4--4--4--5-
5|-4--4--4--4--5-
6|-2--2--2--2--3-

Song Structure:
Play Intro } x2
Play Riff 1 over:
Play Riff 2 over:
Play Riff 1 over:
Play Riff 2 over:
Play Chorus over:
Play Intro } x2
Play Riff 1 over:
Play Riff 2 over:
Play Chorus over:
Play Riff 3 } x1
Play Riff 3 over:
Play Ending Riff a over:
Play Ending Riff b over:

Ещё песни с аккордами исполнителя/группы «311»