Loco
311
311Loco Прислать видеоурок
311 Loco
Добавлено: — , Просмотров: 334 (+0)

 
Добавить в избранное

"311"
Loco

Riff A (w/Distortion):
   N.C. 
1|---------------------------
2|---------------------------
3|---------------------------
4|---------------------------
5|------------0-4------0-4-2-
6|-0-1-2-0-2--------2--------

Riff B (w/Distortion):
   N.C. 
1|-------------------------------
2|-------------------------------
3|-------------------------------
4|-------------------------------
5|--------2-4-2------------------
6|-0-2-4---------4---0-2-0-4-4-2-

Riff C (w/Distortion):
   E5 F5 F#5      A5 A#5 B5  B5/F# 
1|-----------------------------
2|-----------------------------
3|-----------------------------
4|----------------2--3---4---4-
5|-2--3--4---4----0--1---2---2-
6|-0--1--2---2---------------2-

Lyrics/Song Structure:
Play Riff A over:
Play Riff B over:
Play Riff A over:
Play Riff B over:
Play Riff C over:
Play Riff A over:
Play Riff B over:
Play Riff C (x2) over:
End w/first 3 chords of Riff C

Ещё песни с аккордами исполнителя/группы «311»