Misdirected Hostility
311
311Misdirected Hostility Прислать видеоурок
311 Misdirected Hostility
Добавлено: — , Просмотров: 283 (+0)

 
Добавить в избранное

"311"
Misdirected Hostility

Intro (w/Distortion):
   N.C. 
1|---------------------------------------------------------
2|---------------------------------------------------------
3|---------------------------------------------------------
4|---------------------------------------------------------
5|-9--7-5--3-5p3p0-3-5-7-5-3-5----9--7-5--3-5p3p0-3-0------
6|-----------------------------------------------------3-2-

Riff 1 (w/Distortion):
   D5 A5 C5  D5 A5 C5  D5 A5 C5  D5 A5 C5 
1|---------------------------------------
2|---------------------------------------
3|-7-----5---7-----5---7-----5---7-----5-
4|-7--7--5---7--7--5---7--7--5---7--7--5-
5|-5--7--3---5--7--3---5--7--3---5--7--3-
6|----5---------5---------5---------5----

Riff 2 (w/Distortion):
   D5 
1|------
2|------
3|-7///-
4|-7///-
5|-5///-
6|------

Riff 3 (w/Distortion):
   B5   N.C. 
1|--------------
2|--------------
3|-4-4----------
4|-4-4----------
5|-2-2----2-4-2-
6|------4-------

Riff 4 (w/Distortion):
   E5 F5      N.C.                         E5 F5      N.C. 
1|----------------------------------------------------------------------
2|----------------------------------------------------------------------
3|----------------------------------------------------------------------
4|-2--3---3-3-10///-10-9-10-11-10-9-10--2--3---3-3-10///-10-9-10-10-9-10
5|-2--3---3-3---------------------------2--3---3-3----------------------
6|-0--1-0-1-1---------------------------0--1-0-1-1----------------------

Riff 5 (w/Distortion):
   F#5 
1|-------------
2|-------------
3|-------------
4|-3-3-3-3-3-3-
5|-3-3-3-3-3-3-
6|-1-1-1-1-1-1-

Lyrics/Song Structure:
Play Intro } x2
Play Riff 1 over:
Play Riff 2 over:
Play Riff 1 over:
Play Riff 2 over:
Play Riff 3 over:
Play Riff 1 over:
Play Riff 4
Play Riff 1 over:
Play Riff 2 over:
Play Riff 3 over:
Play Riff 1 over:
Play Riff 5 over:
Play Riff 1 over:
Play Riff 2 over:
Play Riff 3 over:
Play Riff 1 over:
Play Riff 5 } x2
Play Riff 2 } x1

Ещё песни с аккордами исполнителя/группы «311»