No Control
311
311No Control Прислать видеоурок
311 No Control
Добавлено: — , Просмотров: 305 (+0)

 
Добавить в избранное

"Transistor"
No Control

Intro (w/flanger)
e--9--9--9--9--11--11--11-11--9--9--9--9--11-11--11--11-11------------------
B--9--9--9--9--11--11--11-11--9--9--9--9--11-11--11--11-11------------------
G-10-10-10-10--12--12--12-12-10-10-10-10--12-12--12--12-12------------------
D---------------------------------------------------------------------------
A---------------------------------------------------------------------------
E---------------------------------------------------------------------------

Fill 1 (this little fill comes right before the singing starts)
e------------------------------------------------------------------------
B------------------------------------------------------------------------
G--8-6-5-----6-5---------------------------------------------------------
D--------8-------8-6-5-5-------------------------------------------------
A------------------------------------------------------------------------
E------------------------------------------------------------------------

Riff 1
e---9--9--9--9--11--11--11--11--9--9--9--9--11--11--11--11---
B---9--9--9--9--11--11--11--11--9--9--9--9--11--11--11--11---
G------------------------------------------------------------
D------------------------------------------------------------
A------------------------------------------------------------
E------------------------------------------------------------

e---9--9--9--9--11--11--11--11--9--9--9--9--11--11--11--11---
B---9--9--9--9--11--11--11--11--9--9--9--9--11--11--11--11---
G------------------------------------------------------------
D------------------------------------------------------------
A------------------------------------------------------------
E------------------------------------------------------------

e---2--2--2--2--4--4--6--4--2--2--2--2--4--4--6--4--
B---2--2--2--2--4--4--4--4--2--2--2--2--4--4--4--4--
G---------------------------------------------------
D---------------------------------------------------
A---------------------------------------------------
E---------------------------------------------------

e---9--9--9--9--11--11--11--11--9--9--9--9--11--11--11--11---
B---9--9--9--9--11--11--11--11--9--9--9--9--11--11--11--11---
G------------------------------------------------------------
D------------------------------------------------------------
A------------------------------------------------------------
E------------------------------------------------------------

e---6---6---6---8---9--
B---6---6---6---8---9--
G-------------------9--
D----------------------
A----------------------
E----------------------

e---9--9--9--9--11--11--11--11--9--9--9--9----------
B---9--9--9--9--11--11--11--11--9--9--9--9----------
G---------------------------------------------------
D---------------------------------------------------
A------------------------------------------------4--
E------------------------------------------4--6-----

Riff 2 (w/heavy distortion)
e---------------------------------------------------------------------------
B---------------------------------------------------------------------------
G-6-6-6-6--8----6-6-6-6--8-----6--------------------------------------------
D-6-6-6-6--8----6-6-6-6--8--8--6--------------------------------------------
A-4-4-4-4--6----4-4-4-4--6--8--4--------------------------------------------
E-4-4-4-4--6----4-4-4-4--6--6--4--------------------------------------------

Riff 3 (w/ heavy distortion)
e---------------------------------------------------------------------------
B---------------------------------------------------------------------------
G---------------------------------------------------------------------------
D--3----3--4---5---6--------------------------------------------------------
A--3----1--4---3---6--------------------------------------------------------
E--1----1--2---3---4--------------------------------------------------------

Riff 4
e---------------------------------------------------------------------------
B---------------------------------------------------------------------------
G---------------------------------------------------------------------------
D--3-3-3--3-3-4-4--5-5-5--6-6-6-6-------------------------------------------
A--3-3-3--1-1-4-4--3-3-3--6-6-6-6-------------------------------------------
E--1-1-1--1-1-2-2--3-3-3--4-4-4-4-------------------------------------------

Lyrics/Song Structure:
Play Intro (x2)
Play Riff 1 (x2) over:
Play Riff 2 (x2) over:
Play Riff 3 (x2) over:
Play Riff 2 (x2) over:
Play Riff 3 (x4) over:
Play Riff 4 (x4) over:
Play F5 (x3)  (133xxx)
Play Riff 1 over:
Play Riff 2 (x2) over:
Play Riff 3 (x2) over:
Play Riff 2 (x2) over:
Play Riff 4 (x4) over:
Song ends on F5 

Ещё песни с аккордами исполнителя/группы «311»