Nutsymtom
311
311Nutsymtom Прислать видеоурок
311 Nutsymtom
Добавлено: — , Просмотров: 350 (+0)

 
Добавить в избранное

"Grassroots"
Nutsymtom

Once again, best viewed with Courier New font

Riff 1:          F#5 G5 E5 
1|-----------------
2|-----------------
3|-----------------
4|4---5--2--2--2--2
5|4---5--2--2--2--2
6|2---3--0--0--0--0

Riff 2:          C6 
1|5-5-5-5-5---5-5-5---5-5-5---5-5-5---5-5-5
2|5-5-5-5-5---5-5-5---5-5-5---5-5-5---5-5-5
3|5-5-5-5-5---5-5-5---5-5-5---5-5-5---5-5-5
4|-----------------------------------------
5|-----------------------------------------
6|-----------------------------------------

Riff 3:          B#5 C5  C#5 D#5 E 
1|----------------0///12
2|4---5---6---8---0///12
3|4---5---6---8---1///13
4|4---5---6---8---2///14
5|2---3---4---6---2///14
6|----------------0///12

Lyrics/Song:
Bass Intro
Play Riff 1 over
Play Riff 2 over
Play Riff 1 over
Play Riff 2 over
Play Riff 1 over
Play Riff 3 over
(repeat Riff 3)
Play Riff 1 over
Play Riff 2 over
Play Riff 1 over
Play Riff 2 over
Play Riff 1 over
Play Riff 3 over
Solo
End With Riff 3 } x2

Ещё песни с аккордами исполнителя/группы «311»