Purpose
311
311Purpose Прислать видеоурок
311 Purpose
Добавлено: — , Просмотров: 289 (+0)

 
Добавить в избранное

"311"
Purpose

Riff A (Clean):
   E     F#m    Abm     F#m 
1|-7--7---9--9--11--11---9---9-
2|-9--9--10-10--12--12--10--10-
3|-9--9--11-11--13--13--11--11-
4|-----------------------------
5|-----------------------------
6|-----------------------------

Fill 1 - A (Clean):
  N.C. 
1|----------------14\\----------------------------------14--14p13p12-
2|-11h12p11h12p11-------9h10p9h10p9------11h12p11h12p11--------------
3|----------------------------------9\\------------------------------
4|-------------------------------------------------------------------
5|-------------------------------------------------------------------
6|-------------------------------------------------------------------

Riff 1 - B (Clean):
  N.C. 
1|----------------14\\----------------------------------14-14/16-
2|-11h12p11h12p11-------9h10p9h10p9------11h12p11h12p11----------
3|----------------------------------9\\--------------------------
4|---------------------------------------------------------------
5|---------------------------------------------------------------
6|---------------------------------------------------------------

Riff B (w/Distortion):
   N.C. 
1|------------------------------------------------------------
2|------------------------------------------------------------
3|------------------------------------------------------------
4|------------------------------------------------------------
5|--------7-7--------7-----------------7-7--------7-----------
6|-0--5-7------4-5-7----4-5-7----0-5-7------4-5-7----4-5-7-4--

Riff C (w/Distortion):
   F#5  A5   E5   F#5  A5   E5 
1|------------------------------
2|------------------------------
3|------2--------------2--------
4|-4----2----2----4----2----2-2-
5|-4----0----2----4----0----2-2-
6|-2---------0----2---------0-0-

Riff D (w/Distortion):
   N.C. 
1|----------------------------------------------------
2|----------------------------------------------------
3|----------------------------------------------------
4|----------------------------------------------------
5|----------------------------------------------------
6|-2-0-1-2--0-1-2-0-1-2--2-4-5--2-4-5--2-4-5--0-0-0-0-

Riff E (w/Distortion):
   C#5  B5 
1|-----------
2|-----------
3|-6----4--4-
4|-6----4--4-
5|-4----2--2-
6|-----------

Song Structure:
Drum Intro
Play Riff A over:
Play Fill 1 - A
Play Fill 1 - B
Play Riff B } x2
Play Riff B over:
Play Riff C over:
Play Riff D over:
Play Riff E over:
Play Riff A over:
Play Fill 1 - A
Play Fill 1 - B
Play Riff B } x2

Ещё песни с аккордами исполнителя/группы «311»