Random
311
311Random Прислать видеоурок
311 Random
Добавлено: — , Просмотров: 425 (+1)

 
Добавить в избранное

"311"
Random

Verse - A (w/Distortion):
   Ab5     D#5         N.C. 
1|-----------------------------
2|-----------------------------
3|-----------------------------
4|---------8-8-8---------------
5|-6-6-6-6-6-6-6-6///----------
6|-4-4-4-4-------------1h2-1h2-

Verse - B (w/Distortion):
   N.C. 
1|------------------------
2|------------------------
3|------------------------
4|------------------------
5|-3------------3-3-4-6-4-
6|---4-3-1-3-3------------

Chorus (w/Heavy Distortion):
   B5     E5     F# 
1|---------------2-x-2-x-2-x-2-x-2-2-2-2-
2|---------------2-x-2-x-2-x-2-x-2-2-2-2-
3|-4-4--4--------3-x-3-x-3-x-3-x-3-3-3-3-
4|-4-4--4-2-2--2-4---4---4---4---4-4-4-4-
5|-2-2--2-2-2--2-4---4---4---4---4-4-4-4-
6|--------0-0--0-2---2---2---2---2-2-2-2-

Ending (w/Heavy Distortion):
   F5 E5 F5 E5 F5 E5 F5    E5 F5 F#5 
1|------------------------------------
2|------------------------------------
3|------------------------------------
4|-3--2--3--2--3--2--3--3--2--3--4--4-
5|-3--2--3--2--3--2--3--3--2--3--4--4-
6|-1--0--1--0--1--0--1--1--0--1--2--2-

Song Structure:
Drum Intro
Play Verse - A over:
Play Verse - B over:
Play Verse - A over:
Play Verse - B over:
Play Chorus over:
Play Verse - A over:
Play Verse - B over:
Play Chorus over:
Play Ending over:
End with two F5 's (133xxx)

Ещё песни с аккордами исполнителя/группы «311»