Star Shines
311
311 Star Shines
Добавлено: — , Просмотров: 340 (+0)

  Добавить в избранное

"Transistor"
Star Shines

Riff 1
(w/ heavy distortion)
e---------------------------------------------------------------------------
B---------------------------------------------------------------------------
G---------------------------------------------------------------------------
D---------------------------------------------------------------------------
A---------------------------------------------------1h2p1-------------------
E--1--1--1--4--------1--1--1--4--------1--1--1--4---------4-1-1--1--1--4----

e---------------------------------------------------------------------------
B---------------------------------------------------------------------------
G---------------------------------------------------------------------------
D---------------------------------------------------------------------------
A---------------------------------------------------1h2p1-----------------4-
E--1--1--1--4--------1--1--1--4--------1--1--1--4---------4-1-1--1--1--4----

Chorus Riff A (played by Guitar #1)
(w/ heavy distortion)
e---------------------------------------------------------------------------
B---------------------------------------------------------------------------
G---------------------------------------------------------------------------
D---------------------------------------------------------------------------
A-----------4---------------------------------------------------------------
E--2--4--2-----2--2---------------------------------------------------------

Chorus Riff B (played by Guitar #2 simultaneously as Chorus Riff A)
(with wah-wah)
(NOTE: the notes below are 16th notes, the part tabbed out below takes the
same amount of time to play as Chorus Riff A does)
e-14-14-x-x-14-14-x-x-x-x-x-x-x-x-x-x---------------------------------------
B-14-14-x-x-14-14-x-x-x-x-x-x-x-x-x-x---------------------------------------
G---------------------------------------------------------------------------
D---------------------------------------------------------------------------
A---------------------------------------------------------------------------
E---------------------------------------------------------------------------

Riff 3
(w/ heavy distortion)
e---------------------------------------------------------------------------
B---------------------------------------------------------------------------
G---------------------------------------------------------------------------
D-------------------6--5---------------------------------6--5---------------
A-6--4--6--4--6--4--------6--4--4--6---6--4--6--4--6--4--------6--4--4--6---
E---------------------------------------------------------------------------

e---------------------------------------------------------------------------
B---------------------------------------------------------------------------
G---------------------------------------------------------------------------
D-------------------6--5-----------------------------------6--5-------------
A-6--4--6--4--6--4--------6-----4--6--4--6--4--6--4--6--4--------6--4--4--6-
E---------------------------------------------------------------------------

SONG STRUCTURE:
Play Riff 1 (x2) over:
(Guitar #1) Play Chorus Riff A (x8) \
(Guitar #2) Play Chorus Riff B (x8) / over:
Play Riff 1 (x2) over:
(Guitar #1) Play Chorus Riff A (x8) \
(Guitar #2) Play Chorus Riff B (x8) / over:
Play Riff 3 (x3) (play this muffled with the palm of your hand the
                  third time) over:
ALL INSTRUMENTS EXCEPT DRUMS AND KEYBOARD STOP
Play Riff 3 over:

Ещё песни с аккордами исполнителя/группы «311»