Sweet
311
311Sweet Прислать видеоурок
311 Sweet
Добавлено: — , Просмотров: 397 (+0)

 
Добавить в избранное

"311"
Sweet

Riff 1 (Clean):
   E7              A 
1|-7-7-7-7---7-----5-5-5-5---5-
2|-9-9-9-9---9-----5-5-5-5---5-
3|-7-7-7-7---7-----6-6-6-6---6-
4|-9-9-9-9---9-----------------
5|-7-7-7-7---7-----------------
6|-----------------------------

Riff 2 (Clean):
   Abdim   A 
1|-7--7----5--5-
2|-9--9----6--6-
3|-7--7----6--6-
4|--------------
5|--------------
6|--------------

Chorus (w/Distortion):
   N.C. 
1|------------------------------------------------------------
2|---------------b9b------------------------------------------
3|------------7------7----------------------------------------
4|-----6-7-9------------9-7-6-7-6-0---------------------------
5|-5-7-------------------------------5-4---4--4--4--5--4------
6|---------------------------------------5----------------5-3-

Song Structure:
Bass Intro
Play Riff 1 over:
Play Riff 2 over:
Play Chorus over:
Play Riff 1 over:
Play Riff 2 over:
Play Chorus over:
Solo
Solo 2 over Chorus

Ещё песни с аккордами исполнителя/группы «311»